  0
SECTION
  2
HEADER
  9
$ACADVER
  1
AC1014
  9
$ACADMAINTVER
 70
     0
  9
$DWGCODEPAGE
  3
ANSI_932
  9
$INSBASE
 10
0.0
 20
0.0
 30
0.0
  9
$EXTMIN
 10
-15.0005
 20
-137.5
 30
0.0
  9
$EXTMAX
 10
240.0005
 20
172.5
 30
0.0
  9
$LIMMIN
 10
-15.0005
 20
-137.5
  9
$LIMMAX
 10
240.0005
 20
172.5
  9
$ORTHOMODE
 70
     0
  9
$REGENMODE
 70
     1
  9
$FILLMODE
 70
     1
  9
$QTEXTMODE
 70
     0
  9
$MIRRTEXT
 70
     1
  9
$DRAGMODE
 70
     2
  9
$LTSCALE
 40
1.0
  9
$OSMODE
 70
     0
  9
$ATTMODE
 70
     1
  9
$TEXTSIZE
 40
4.1656
  9
$TRACEWID
 40
0.05
  9
$TEXTSTYLE
  7
MX_NOTE_STANDARD
  9
$CLAYER
  8
0
  9
$CELTYPE
  6
CONTINUOUS
  9
$CECOLOR
 62
   256
  9
$CELTSCALE
 40
1.0
  9
$DELOBJ
 70
     1
  9
$DISPSILH
 70
     0
  9
$DIMSCALE
 40
1.0
  9
$DIMASZ
 40
2.5
  9
$DIMEXO
 40
1.0
  9
$DIMDLI
 40
3.75
  9
$DIMRND
 40
0.0
  9
$DIMDLE
 40
0.0
  9
$DIMEXE
 40
1.0
  9
$DIMTP
 40
0.0
  9
$DIMTM
 40
0.0
  9
$DIMTXT
 40
4.1656
  9
$DIMCEN
 40
2.5
  9
$DIMTSZ
 40
0.0
  9
$DIMTOL
 70
     0
  9
$DIMLIM
 70
     0
  9
$DIMTIH
 70
     0
  9
$DIMTOH
 70
     0
  9
$DIMSE1
 70
     0
  9
$DIMSE2
 70
     0
  9
$DIMTAD
 70
     1
  9
$DIMZIN
 70
     8
  9
$DIMBLK
  1

  9
$DIMASO
 70
     1
  9
$DIMSHO
 70
     1
  9
$DIMPOST
  1

  9
$DIMAPOST
  1

  9
$DIMALT
 70
     0
  9
$DIMALTD
 70
     4
  9
$DIMALTF
 40
0.0394
  9
$DIMLFAC
 40
1.0
  9
$DIMTOFL
 70
     1
  9
$DIMTVP
 40
0.0
  9
$DIMTIX
 70
     0
  9
$DIMSOXD
 70
     0
  9
$DIMSAH
 70
     0
  9
$DIMBLK1
  1

  9
$DIMBLK2
  1

  9
$DIMSTYLE
  2
MXDIMSTYLE
  9
$DIMCLRD
 70
     0
  9
$DIMCLRE
 70
     0
  9
$DIMCLRT
 70
     0
  9
$DIMTFAC
 40
1.0
  9
$DIMGAP
 40
1.0
  9
$DIMJUST
 70
     0
  9
$DIMSD1
 70
     0
  9
$DIMSD2
 70
     0
  9
$DIMTOLJ
 70
     1
  9
$DIMTZIN
 70
     0
  9
$DIMALTZ
 70
     0
  9
$DIMALTTZ
 70
     0
  9
$DIMFIT
 70
     3
  9
$DIMUPT
 70
     1
  9
$DIMUNIT
 70
     2
  9
$DIMDEC
 70
     4
  9
$DIMTDEC
 70
     4
  9
$DIMALTU
 70
     8
  9
$DIMALTTD
 70
     4
  9
$DIMTXSTY
  7
MX_NOTE_STANDARD
  9
$DIMAUNIT
 70
     0
  9
$LUNITS
 70
     2
  9
$LUPREC
 70
     4
  9
$SKETCHINC
 40
0.1
  9
$FILLETRAD
 40
0.0
  9
$AUNITS
 70
     0
  9
$AUPREC
 70
     0
  9
$MENU
  1
acad
  9
$ELEVATION
 40
0.0
  9
$PELEVATION
 40
0.0
  9
$THICKNESS
 40
0.0
  9
$LIMCHECK
 70
     0
  9
$BLIPMODE
 70
     1
  9
$CHAMFERA
 40
0.0
  9
$CHAMFERB
 40
0.0
  9
$CHAMFERC
 40
0.0
  9
$CHAMFERD
 40
0.0
  9
$SKPOLY
 70
     0
  9
$TDCREATE
 40
2452807.693206018
  9
$TDUPDATE
 40
2452807.693206018
  9
$TDINDWG
 40
0.0000000000
  9
$TDUSRTIMER
 40
0.0000000000
  9
$USRTIMER
 70
     1
  9
$ANGBASE
 50
0.0
  9
$ANGDIR
 70
     0
  9
$PDMODE
 70
     0
  9
$PDSIZE
 40
0.0
  9
$PLINEWID
 40
0.0
  9
$COORDS
 70
     1
  9
$SPLFRAME
 70
     0
  9
$SPLINETYPE
 70
     6
  9
$SPLINESEGS
 70
     8
  9
$ATTDIA
 70
     0
  9
$ATTREQ
 70
     1
  9
$HANDLING
 70
     1
  9
$HANDSEED
  5
8B4
  9
$SURFTAB1
 70
     6
  9
$SURFTAB2
 70
     6
  9
$SURFTYPE
 70
     6
  9
$SURFU
 70
     6
  9
$SURFV
 70
     6
  9
$UCSNAME
  2

  9
$UCSORG
 10
0.0
 20
0.0
 30
0.0
  9
$UCSXDIR
 10
1.0
 20
0.0
 30
0.0
  9
$UCSYDIR
 10
0.0
 20
1.0
 30
0.0
  9
$PUCSNAME
  2

  9
$PUCSORG
 10
0.0
 20
0.0
 30
0.0
  9
$PUCSXDIR
 10
1.0
 20
0.0
 30
0.0
  9
$PUCSYDIR
 10
0.0
 20
1.0
 30
0.0
  9
$USERI1
 70
     0
  9
$USERI2
 70
     0
  9
$USERI3
 70
     0
  9
$USERI4
 70
     0
  9
$USERI5
 70
     0
  9
$USERR1
 40
0.0
  9
$USERR2
 40
0.0
  9
$USERR3
 40
0.0
  9
$USERR4
 40
0.0
  9
$USERR5
 40
0.0
  9
$WORLDVIEW
 70
     1
  9
$SHADEDGE
 70
     3
  9
$SHADEDIF
 70
    70
  9
$TILEMODE
 70
     1
  9
$MAXACTVP
 70
    16
  9
$PINSBASE
 10
0.0
 20
0.0
 30
0.0
  9
$PLIMCHECK
 70
     0
  9
$PEXTMIN
 10
1.000000E+20
 20
1.000000E+20
 30
1.000000E+20
  9
$PEXTMAX
 10
-1.000000E+20
 20
-1.000000E+20
 30
-1.000000E+20
  9
$PLIMMIN
 10
0.0
 20
0.0
  9
$PLIMMAX
 10
12.0
 20
9.0
  9
$UNITMODE
 70
     0
  9
$VISRETAIN
 70
     0
  9
$PLINEGEN
 70
     1
  9
$PSLTSCALE
 70
     0
  9
$TREEDEPTH
 70
  3020
  9
$PICKSTYLE
 70
     1
  9
$CMLSTYLE
  2
Standard
  9
$CMLJUST
 70
     0
  9
$CMLSCALE
 40
1.0
  9
$PROXYGRAPHICS
 70
     0
  9
$MEASUREMENT
 70
     1
  0
ENDSEC
  0
SECTION
  2
CLASSES
  0
CLASS
  1
LWPOLYLINE
  2
AcDbPolyline
  3
"AutoCAD"
 90
        0
280
     0
281
     1
  0
CLASS
  1
IMAGE
  2
AcDbRasterImage
  3
ISM
 90
      127
280
     0
281
     1
  0
CLASS
  1
OLE2FRAME
  2
AcDbOle2Frame
  3
""
 90
        0
280
     0
281
     1
  0
CLASS
  1
HATCH
  2
AcDbHatch
  3
"ACAD_SEDONA"
 90
        0
280
     0
281
     1
  0
CLASS
  1
DICTIONARYVAR
  2
AcDbDictionaryVar
  3
"AutoCAD"
 90
        0
280
     0
281
     0
  0
CLASS
  1
RASTERVARIABLES
  2
AcDbRasterVariables
  3
ISM
 90
        0
280
     0
281
     0
  0
CLASS
  1
IMAGEDEF
  2
AcDbRasterImageDef
  3
ISM
 90
        0
280
     0
281
     0
  0
CLASS
  1
IMAGEDEF_REACTOR
  2
AcDbRasterImageDefReactor
  3
ISM
 90
        1
280
     0
281
     0
  0
CLASS
  1
IDBUFFER
  2
AcDbIdBuffer
  3
"Acad"
 90
        0
280
     0
281
     0
  0
CLASS
  1
SPATIAL_FILTER
  2
AcDbSpatialFilter
  3
"Acad"
 90
        0
280
     0
281
     0
  0
CLASS
  1
XRECORD
  2
AcDbXrecord
  3
"<Built In>"
 90
        0
280
     0
281
     0
  0
CLASS
  1
SORTENTSTABLE
  2
AcDbSortentsTable
  3
"AutoCAD"
 90
        0
280
     0
281
     0
  0
CLASS
  1
LAYER_INDEX
  2
AcDbLayerIndex
  3
"Acad"
 90
        0
280
     0
281
     0
  0
CLASS
  1
SPATIAL_INDEX
  2
AcDbSpatialIndex
  3
"Acad"
 90
        0
280
     0
281
     0
  0
CLASS
  1
OBJECT_PTR
  2
CAseDLPNTableRecord
  3
"ASE-LPNTableRecord"
 90
        1
280
     0
281
     0
  0
CLASS
  1
LAYOUT
  2
AcDbLayout
  3
"AutoCAD 2000"
 90
        1
280
     0
281
     0
  0
CLASS
  1
PLOTSETTINGS
  2
AcDbPlotSettings
  3
"AutoCAD 2000"
 90
        1
280
     0
281
     0
  0
CLASS
  1
ACDBDICTIONARYWDFLT
  2
AcDbDictionaryWithDefault
  3
"AutoCAD 2000"
 90
        1
280
     0
281
     0
  0
CLASS
  1
ACDBPLACEHOLDER
  2
AcDbPlaceHolder
  3
"AutoCAD 2000"
 90
        1
280
     0
281
     0
  0
CLASS
  1
VBA_PROJECT
  2
AcDbVbaProject
  3
"acadvba"
 90
        1
280
     0
281
     0
  0
CLASS
  1
WIPEOUT
  2
AcDbWipeout
  3
WipeOut|AutoCAD Express Tool|expresstools@autodesk.com
 90
      127
280
     0
281
     1
  0
CLASS
  1
WIPEOUTVARIABLES
  2
AcDbWipeoutVariables
  3
WipeOut|AutoCAD Express Tool|expresstools@autodesk.com
 90
        0
280
     0
281
     0
  0
CLASS
  1
RTEXT
  2
RText
  3
RText|AutoCAD Express Tool|expresstools@autodesk.com
 90
        0
280
     0
281
     1
  0
CLASS
  1
ARCALIGNEDTEXT
  2
AcDbArcAlignedText
  3
ATEXT|AutoCAD Express Tool|expresstools@autodesk.com
 90
        0
280
     0
281
     1
  0
ENDSEC
  0
SECTION
  2
TABLES
  0
TABLE
  2
VPORT
  5
7
100
AcDbSymbolTable
 70
     1
  0
VPORT
  5
15
100
AcDbSymbolTableRecord
100
AcDbViewportTableRecord
  2
*ACTIVE
 70
     0
 10
0.0
 20
0.0
 11
1.0
 21
1.0
 12
112.5
 22
17.5
 13
0.0
 23
0.0
 14
1.0
 24
1.0
 15
0.0
 25
0.0
 16
0.0
 26
0.0
 36
1.0
 17
0.0
 27
0.0
 37
0.0
 40
313.1
 41
1.732051
 42
50.0
 43
0.0
 44
0.0
 50
0.0
 51
0.0
 71
     0
 72
   100
 73
     1
 74
     1
 75
     0
 76
     0
 77
     0
 78
     0
  0
ENDTAB
  0
TABLE
  2
LTYPE
  5
4
100
AcDbSymbolTable
 70
     3
  0
LTYPE
  5
11
100
AcDbSymbolTableRecord
100
AcDbLinetypeTableRecord
  2
BYBLOCK
 70
    64
  3

 72
    65
 73
     0
 40
0.0
  0
LTYPE
  5
12
100
AcDbSymbolTableRecord
100
AcDbLinetypeTableRecord
  2
BYLAYER
 70
    64
  3

 72
    65
 73
     0
 40
0.0
  0
LTYPE
  5
13
100
AcDbSymbolTableRecord
100
AcDbLinetypeTableRecord
  2
CONTINUOUS
 70
    64
  3
Solid line
 72
    65
 73
     0
 40
0.0
  0
ENDTAB
  0
TABLE
  2
LAYER
  5
2
100
AcDbSymbolTable
 70
     4
  0
LAYER
  5
14
100
AcDbSymbolTableRecord
100
AcDbLayerTableRecord
  2
0
 70
     0
 62
     7
  6
CONTINUOUS
  0
LAYER
  5
1D
100
AcDbSymbolTableRecord
100
AcDbLayerTableRecord
  2
1
 70
     0
 62
     7
  6
CONTINUOUS
  0
LAYER
  5
1E
100
AcDbSymbolTableRecord
100
AcDbLayerTableRecord
  2
シンボル
 70
     1
 62
  -130
  6
CONTINUOUS
  0
LAYER
  5
1F
100
AcDbSymbolTableRecord
100
AcDbLayerTableRecord
  2
DEFPOINTS
 70
     0
 62
     7
  6
CONTINUOUS
  0
ENDTAB
  0
TABLE
  2
STYLE
  5
3
100
AcDbSymbolTable
 70
     1
  0
STYLE
  5
17
100
AcDbSymbolTableRecord
100
AcDbTextStyleTableRecord
  2
MX_NOTE_STANDARD
 70
     0
 40
4.1656
 41
1.0
 50
0.0
 71
     0
 42
4.1656
  3
txt.shx
  4
extfont.shx
  0
ENDTAB
  0
TABLE
  2
VIEW
  5
5
100
AcDbSymbolTable
 70
     0
  0
ENDTAB
  0
TABLE
  2
UCS
  5
6
100
AcDbSymbolTable
 70
     0
  0
ENDTAB
  0
TABLE
  2
APPID
  5
8
100
AcDbSymbolTable
 70
     1
  0
APPID
  5
16
100
AcDbSymbolTableRecord
100
AcDbRegAppTableRecord
  2
ACAD
 70
     0
  0
ENDTAB
  0
TABLE
  2
DIMSTYLE
  5
9
100
AcDbSymbolTable
 70
     1
  0
DIMSTYLE
105
18
100
AcDbSymbolTableRecord
100
AcDbDimStyleTableRecord
  2
MXDIMSTYLE
 70
     0
  3

  4

  5

  6

  7

 40
1.0
 41
2.5
 42
1.0
 43
3.75
 44
1.0
 45
0.0
 46
0.0
 47
0.0
 48
0.0
 71
     0
 72
     0
 73
     0
 74
     0
 75
     0
 76
     0
 77
     1
 78
     8
140
4.1656
141
2.5
142
0.0
143
0.0394
144
1.0
145
0.0
146
1.0
147
1.0
170
     0
171
     4
172
     1
173
     0
174
     0
175
     0
176
     0
177
     0
178
     0
270
     2
271
     4
272
     4
273
     8
274
     4
275
     0
280
     0
281
     0
282
     0
283
     1
284
     0
285
     0
286
     0
287
     3
288
     1
340
17
  0
ENDTAB
  0
TABLE
  2
BLOCK_RECORD
  5
1
100
AcDbSymbolTable
 70
     0
  0
BLOCK_RECORD
  5
A
100
AcDbSymbolTableRecord
100
AcDbBlockTableRecord
  2
*MODEL_SPACE
  0
BLOCK_RECORD
  5
B
100
AcDbSymbolTableRecord
100
AcDbBlockTableRecord
  2
*PAPER_SPACE
  0
ENDTAB
  0
ENDSEC
  0
SECTION
  2
BLOCKS
  0
BLOCK
  5
D
100
AcDbEntity
  8
0
100
AcDbBlockBegin
  2
*MODEL_SPACE
 70
     0
 10
0.0
 20
0.0
 30
0.0
  3
*MODEL_SPACE
  1

  0
ENDBLK
  5
E
100
AcDbEntity
  8
0
100
AcDbBlockEnd
  0
BLOCK
  5
F
100
AcDbEntity
 67
     1
  8
0
100
AcDbBlockBegin
  2
*PAPER_SPACE
 70
     0
 10
0.0
 20
0.0
 30
0.0
  3
*PAPER_SPACE
  1

  0
ENDBLK
  5
10
100
AcDbEntity
 67
     1
  8
0
100
AcDbBlockEnd
  0
ENDSEC
  0
SECTION
  2
ENTITIES
  0
ARC
  5
20
100
AcDbEntity
  8
1
  6
CONTINUOUS
 62
   160
100
AcDbCircle
 10
0.589
 20
22.225
 30
0.0
 40
0.3
100
AcDbArc
 50
135.0
 51
225.13481
  0
ARC
  5
21
100
AcDbEntity
  8
1
  6
CONTINUOUS
 62
   160
100
AcDbCircle
 10
-0.1
 20
22.914
 30
0.0
 40
0.3
100
AcDbArc
 50
225.0
 51
315.134813
  0
ARC
  5
22
100
AcDbEntity
  8
1
  6
CONTINUOUS
 62
   160
100
AcDbCircle
 10
-0.789
 20
22.225
 30
0.0
 40
0.3
100
AcDbArc
 50
314.865186
 51
45.0
  0
ARC
  5
23
100
AcDbEntity
  8
1
  6
CONTINUOUS
 62
   160
100
AcDbCircle
 10
-0.1
 20
21.536
 30
0.0
 40
0.3
100
AcDbArc
 50
44.86518
 51
135.0
  0
CIRCLE
  5
24
100
AcDbEntity
  8
1
  6
CONTINUOUS
 62
   160
100
AcDbCircle
 10
-0.789
 20
22.225
 30
0.0
 40
0.15
  0
LINE
  5
25
100
AcDbEntity
  8
1
  6
CONTINUOUS
 62
   160
100
AcDbLine
 10
0.563
 20
22.623
 30
0.0
 11
0.378
 21
22.437
 31
0.0
  0
LINE
  5
26
100
AcDbEntity
  8
1
  6
CONTINUOUS
 62
   160
100
AcDbLine
 10
-0.312
 20
21.747
 30
0.0
 11
-0.498
 21
21.562
 31
0.0
  0
LINE
  5
27
100
AcDbEntity
  8
1
  6
CONTINUOUS
 62
   160
100
AcDbLine
 10
0.378
 20
22.013
 30
0.0
 11
0.563
 21
21.827
 31
0.0
  0
LINE
  5
28
100
AcDbEntity
  8
1
  6
CONTINUOUS
 62
   160
100
AcDbLine
 10
-0.498
 20
22.888
 30
0.0
 11
-0.312
 21
22.702
 31
0.0
  0
LINE
  5
29
100
AcDbEntity
  8
1
  6
CONTINUOUS
 62
   160
100
AcDbLine
 10
0.298
 20
22.888
 30
0.0
 11
0.112
 21
22.702
 31
0.0
  0
LINE
  5
2A
100
AcDbEntity
  8
1
  6
CONTINUOUS
 62
   160
100
AcDbLine
 10
-0.577
 20
22.013
 30
0.0
 11
-0.763
 21
21.827
 31
0.0
  0
LINE
  5
2B
100
AcDbEntity
  8
1
  6
CONTINUOUS
 62
   160
100
AcDbLine
 10
0.112
 20
21.747
 30
0.0
 11
0.298
 21
21.562
 31
0.0
  0
LINE
  5
2C
100
AcDbEntity
  8
1
  6
CONTINUOUS
 62
   160
100
AcDbLine
 10
-0.763
 20
22.623
 30
0.0
 11
-0.577
 21
22.437
 31
0.0
  0
LINE
  5
2D
100
AcDbEntity
  8
1
  6
CONTINUOUS
 62
   160
100
AcDbLine
 10
-0.763
 20
21.827
 30
0.0
 11
-0.498
 21
21.562
 31
0.0
  0
LINE
  5
2E
100
AcDbEntity
  8
1
  6
CONTINUOUS
 62
   160
100
AcDbLine
 10
0.298
 20
22.888
 30
0.0
 11
0.563
 21
22.623
 31
0.0
  0
LINE
  5
2F
100
AcDbEntity
  8
1
  6
CONTINUOUS
 62
   160
100
AcDbLine
 10
-0.498
 20
22.888
 30
0.0
 11
-0.763
 21
22.623
 31
0.0
  0
LINE
  5
30
100
AcDbEntity
  8
1
  6
CONTINUOUS
 62
   160
100
AcDbLine
 10
0.563
 20
21.827
 30
0.0
 11
0.298
 21
21.562
 31
0.0
  0
CIRCLE
  5
31
100
AcDbEntity
  8
1
  6
CONTINUOUS
 62
   160
100
AcDbCircle
 10
-0.1
 20
22.225
 30
0.0
 40
1.32
  0
MTEXT
  5
32
100
AcDbEntity
  8
1
  6
CONTINUOUS
 62
   191
100
AcDbMText
 10
233.725
 20
-78.55
 30
0.0
 40
1.25
 41
0.0
 71
     1
 72
     1
  1
\T0.750;\W0.873;\A1;AUTO
  7
MX_NOTE_STANDARD
 11
0.0
 21
1.0
 31
0.0
  0
ARC
  5
33
100
AcDbEntity
  8
1
  6
CONTINUOUS
 62
    50
100
AcDbCircle
 10
225.325
 20
63.875
 30
0.0
 40
0.25
100
AcDbArc
 50
0.0
 51
90.0
  0
ARC
  5
34
100
AcDbEntity
  8
1
  6
CONTINUOUS
 62
    50
100
AcDbCircle
 10
223.075
 20
60.625
 30
0.0
 40
0.25
100
AcDbArc
 50
180.0
 51
270.0
  0
ARC
  5
35
100
AcDbEntity
  8
1
  6
CONTINUOUS
 62
    50
100
AcDbCircle
 10
223.075
 20
63.875
 30
0.0
 40
0.25
100
AcDbArc
 50
90.0
 51
180.0
  0
ARC
  5
36
100
AcDbEntity
  8
1
  6
CONTINUOUS
 62
    50
100
AcDbCircle
 10
225.325
 20
60.625
 30
0.0
 40
0.25
100
AcDbArc
 50
270.0
 51
0.0
  0
LINE
  5
37
100
AcDbEntity
  8
1
  6
CONTINUOUS
 62
    50
100
AcDbLine
 10
223.075
 20
64.125
 30
0.0
 11
225.325
 21
64.125
 31
0.0
  0
LINE
  5
38
100
AcDbEntity
  8
1
  6
CONTINUOUS
 62
    50
100
AcDbLine
 10
225.575
 20
63.875
 30
0.0
 11
225.575
 21
60.625
 31
0.0
  0
LINE
  5
39
100
AcDbEntity
  8
1
  6
CONTINUOUS
 62
    50
100
AcDbLine
 10
223.075
 20
60.375
 30
0.0
 11
225.325
 21
60.375
 31
0.0
  0
LINE
  5
3A
100
AcDbEntity
  8
1
  6
CONTINUOUS
 62
    50
100
AcDbLine
 10
222.825
 20
63.875
 30
0.0
 11
222.825
 21
60.625
 31
0.0
  0
LINE
  5
3B
100
AcDbEntity
  8
1
  6
CONTINUOUS
 62
    50
100
AcDbLine
 10
222.825
 20
61.625
 30
0.0
 11
225.575
 21
61.625
 31
0.0
  0
LINE
  5
3C
100
AcDbEntity
  8
1
  6
CONTINUOUS
 62
    50
100
AcDbLine
 10
222.825
 20
62.875
 30
0.0
 11
225.575
 21
62.875
 31
0.0
  0
LINE
  5
3D
100
AcDbEntity
  8
1
  6
CONTINUOUS
 62
    50
100
AcDbLine
 10
223.741667
 20
64.125
 30
0.0
 11
223.741667
 21
60.375
 31
0.0
  0
LINE
  5
3E
100
AcDbEntity
  8
1
  6
CONTINUOUS
 62
    50
100
AcDbLine
 10
224.658333
 20
64.125
 30
0.0
 11
224.658333
 21
60.375
 31
0.0
  0
ARC
  5
3F
100
AcDbEntity
  8
1
  6
CONTINUOUS
 62
    50
100
AcDbCircle
 10
162.00075
 20
-115.249571
 30
0.0
 40
0.5
100
AcDbArc
 50
90.0
 51
180.0
  0
ARC
  5
40
100
AcDbEntity
  8
1
  6
CONTINUOUS
 62
    50
100
AcDbCircle
 10
162.00075
 20
-115.249571
 30
0.0
 40
0.5
100
AcDbArc
 50
0.0
 51
90.0
  0
ARC
  5
41
100
AcDbEntity
  8
1
  6
CONTINUOUS
 62
    50
100
AcDbCircle
 10
160.00075
 20
-115.249571
 30
0.0
 40
0.5
100
AcDbArc
 50
90.0
 51
180.0
  0
ARC
  5
42
100
AcDbEntity
  8
1
  6
CONTINUOUS
 62
    50
100
AcDbCircle
 10
160.00075
 20
-115.249571
 30
0.0
 40
0.5
100
AcDbArc
 50
0.0
 51
90.0
  0
ARC
  5
43
100
AcDbEntity
  8
1
  6
CONTINUOUS
 62
    50
100
AcDbCircle
 10
158.00075
 20
-115.249571
 30
0.0
 40
0.5
100
AcDbArc
 50
90.0
 51
180.0
  0
ARC
  5
44
100
AcDbEntity
  8
1
  6
CONTINUOUS
 62
    50
100
AcDbCircle
 10
158.00075
 20
-115.249571
 30
0.0
 40
0.5
100
AcDbArc
 50
0.0
 51
90.0
  0
ARC
  5
45
100
AcDbEntity
  8
1
  6
CONTINUOUS
 62
    50
100
AcDbCircle
 10
156.00075
 20
-115.249571
 30
0.0
 40
0.5
100
AcDbArc
 50
90.0
 51
180.0
  0
ARC
  5
46
100
AcDbEntity
  8
1
  6
CONTINUOUS
 62
    50
100
AcDbCircle
 10
156.00075
 20
-115.249571
 30
0.0
 40
0.5
100
AcDbArc
 50
0.0
 51
90.0
  0
ARC
  5
47
100
AcDbEntity
  8
1
  6
CONTINUOUS
 62
    50
100
AcDbCircle
 10
154.00075
 20
-115.249571
 30
0.0
 40
0.5
100
AcDbArc
 50
90.0
 51
180.0
  0
ARC
  5
48
100
AcDbEntity
  8
1
  6
CONTINUOUS
 62
    50
100
AcDbCircle
 10
154.00075
 20
-115.249571
 30
0.0
 40
0.5
100
AcDbArc
 50
0.0
 51
90.0
  0
ARC
  5
49
100
AcDbEntity
  8
1
  6
CONTINUOUS
 62
    50
100
AcDbCircle
 10
152.00075
 20
-115.249571
 30
0.0
 40
0.5
100
AcDbArc
 50
0.0
 51
90.0
  0
ARC
  5
4A
100
AcDbEntity
  8
1
  6
CONTINUOUS
 62
    50
100
AcDbCircle
 10
152.00075
 20
-115.249571
 30
0.0
 40
0.5
100
AcDbArc
 50
90.0
 51
180.0
  0
ARC
  5
4B
100
AcDbEntity
  8
1
  6
CONTINUOUS
 62
    50
100
AcDbCircle
 10
150.00075
 20
-115.249571
 30
0.0
 40
0.5
100
AcDbArc
 50
0.0
 51
90.0
  0
ARC
  5
4C
100
AcDbEntity
  8
1
  6
CONTINUOUS
 62
    50
100
AcDbCircle
 10
150.00075
 20
-115.249571
 30
0.0
 40
0.5
100
AcDbArc
 50
90.0
 51
180.0
  0
ARC
  5
4D
100
AcDbEntity
  8
1
  6
CONTINUOUS
 62
    50
100
AcDbCircle
 10
148.00075
 20
-115.249571
 30
0.0
 40
0.5
100
AcDbArc
 50
0.0
 51
90.0
  0
ARC
  5
4E
100
AcDbEntity
  8
1
  6
CONTINUOUS
 62
    50
100
AcDbCircle
 10
148.00075
 20
-115.249571
 30
0.0
 40
0.5
100
AcDbArc
 50
90.0
 51
180.0
  0
ARC
  5
4F
100
AcDbEntity
  8
1
  6
CONTINUOUS
 62
    50
100
AcDbCircle
 10
146.00075
 20
-115.249571
 30
0.0
 40
0.5
100
AcDbArc
 50
0.0
 51
90.0
  0
ARC
  5
50
100
AcDbEntity
  8
1
  6
CONTINUOUS
 62
    50
100
AcDbCircle
 10
146.00075
 20
-115.249571
 30
0.0
 40
0.5
100
AcDbArc
 50
90.0
 51
180.0
  0
ARC
  5
51
100
AcDbEntity
  8
1
  6
CONTINUOUS
 62
    50
100
AcDbCircle
 10
144.00075
 20
-115.249571
 30
0.0
 40
0.5
100
AcDbArc
 50
0.0
 51
90.0
  0
ARC
  5
52
100
AcDbEntity
  8
1
  6
CONTINUOUS
 62
    50
100
AcDbCircle
 10
144.00075
 20
-115.249571
 30
0.0
 40
0.5
100
AcDbArc
 50
90.0
 51
180.0
  0
ARC
  5
53
100
AcDbEntity
  8
1
  6
CONTINUOUS
 62
    50
100
AcDbCircle
 10
142.00075
 20
-115.249571
 30
0.0
 40
0.5
100
AcDbArc
 50
0.0
 51
90.0
  0
ARC
  5
54
100
AcDbEntity
  8
1
  6
CONTINUOUS
 62
    50
100
AcDbCircle
 10
142.00075
 20
-115.249571
 30
0.0
 40
0.5
100
AcDbArc
 50
90.0
 51
180.0
  0
ARC
  5
55
100
AcDbEntity
  8
1
  6
CONTINUOUS
 62
    50
100
AcDbCircle
 10
140.00075
 20
-115.249571
 30
0.0
 40
0.5
100
AcDbArc
 50
0.0
 51
90.0
  0
ARC
  5
56
100
AcDbEntity
  8
1
  6
CONTINUOUS
 62
    50
100
AcDbCircle
 10
140.00075
 20
-115.249571
 30
0.0
 40
0.5
100
AcDbArc
 50
90.0
 51
180.0
  0
ARC
  5
57
100
AcDbEntity
  8
1
  6
CONTINUOUS
 62
    50
100
AcDbCircle
 10
138.00075
 20
-115.249571
 30
0.0
 40
0.5
100
AcDbArc
 50
0.0
 51
90.0
  0
ARC
  5
58
100
AcDbEntity
  8
1
  6
CONTINUOUS
 62
    50
100
AcDbCircle
 10
138.00075
 20
-115.249571
 30
0.0
 40
0.5
100
AcDbArc
 50
90.0
 51
180.0
  0
ARC
  5
59
100
AcDbEntity
  8
1
  6
CONTINUOUS
 62
    50
100
AcDbCircle
 10
136.00075
 20
-115.249571
 30
0.0
 40
0.5
100
AcDbArc
 50
0.0
 51
90.0
  0
ARC
  5
5A
100
AcDbEntity
  8
1
  6
CONTINUOUS
 62
    50
100
AcDbCircle
 10
136.00075
 20
-115.249571
 30
0.0
 40
0.5
100
AcDbArc
 50
90.0
 51
180.0
  0
ARC
  5
5B
100
AcDbEntity
  8
1
  6
CONTINUOUS
 62
    50
100
AcDbCircle
 10
134.00075
 20
-115.249571
 30
0.0
 40
0.5
100
AcDbArc
 50
0.0
 51
90.0
  0
ARC
  5
5C
100
AcDbEntity
  8
1
  6
CONTINUOUS
 62
    50
100
AcDbCircle
 10
134.00075
 20
-115.249571
 30
0.0
 40
0.5
100
AcDbArc
 50
90.0
 51
180.0
  0
ARC
  5
5D
100
AcDbEntity
  8
1
  6
CONTINUOUS
 62
    50
100
AcDbCircle
 10
132.00075
 20
-115.249571
 30
0.0
 40
0.5
100
AcDbArc
 50
0.0
 51
90.0
  0
ARC
  5
5E
100
AcDbEntity
  8
1
  6
CONTINUOUS
 62
    50
100
AcDbCircle
 10
132.00075
 20
-115.249571
 30
0.0
 40
0.5
100
AcDbArc
 50
90.0
 51
180.0
  0
ARC
  5
5F
100
AcDbEntity
  8
1
  6
CONTINUOUS
 62
    50
100
AcDbCircle
 10
130.00075
 20
-115.249571
 30
0.0
 40
0.5
100
AcDbArc
 50
0.0
 51
90.0
  0
ARC
  5
60
100
AcDbEntity
  8
1
  6
CONTINUOUS
 62
    50
100
AcDbCircle
 10
130.00075
 20
-115.249571
 30
0.0
 40
0.5
100
AcDbArc
 50
90.0
 51
180.0
  0
ARC
  5
61
100
AcDbEntity
  8
1
  6
CONTINUOUS
 62
    50
100
AcDbCircle
 10
128.00075
 20
-115.249571
 30
0.0
 40
0.5
100
AcDbArc
 50
0.0
 51
90.0
  0
ARC
  5
62
100
AcDbEntity
  8
1
  6
CONTINUOUS
 62
    50
100
AcDbCircle
 10
128.00075
 20
-115.249571
 30
0.0
 40
0.5
100
AcDbArc
 50
90.0
 51
180.0
  0
ARC
  5
63
100
AcDbEntity
  8
1
  6
CONTINUOUS
 62
    50
100
AcDbCircle
 10
126.00075
 20
-115.249571
 30
0.0
 40
0.5
100
AcDbArc
 50
0.0
 51
90.0
  0
ARC
  5
64
100
AcDbEntity
  8
1
  6
CONTINUOUS
 62
    50
100
AcDbCircle
 10
126.00075
 20
-115.249571
 30
0.0
 40
0.5
100
AcDbArc
 50
90.0
 51
180.0
  0
ARC
  5
65
100
AcDbEntity
  8
1
  6
CONTINUOUS
 62
    50
100
AcDbCircle
 10
124.00075
 20
-115.249571
 30
0.0
 40
0.5
100
AcDbArc
 50
0.0
 51
90.0
  0
ARC
  5
66
100
AcDbEntity
  8
1
  6
CONTINUOUS
 62
    50
100
AcDbCircle
 10
124.00075
 20
-115.249571
 30
0.0
 40
0.5
100
AcDbArc
 50
90.0
 51
180.0
  0
ARC
  5
67
100
AcDbEntity
  8
1
  6
CONTINUOUS
 62
    50
100
AcDbCircle
 10
122.00075
 20
-115.249571
 30
0.0
 40
0.5
100
AcDbArc
 50
0.0
 51
90.0
  0
ARC
  5
68
100
AcDbEntity
  8
1
  6
CONTINUOUS
 62
    50
100
AcDbCircle
 10
122.00075
 20
-115.249571
 30
0.0
 40
0.5
100
AcDbArc
 50
90.0
 51
180.0
  0
ARC
  5
69
100
AcDbEntity
  8
1
  6
CONTINUOUS
 62
    50
100
AcDbCircle
 10
120.00075
 20
-115.249571
 30
0.0
 40
0.5
100
AcDbArc
 50
0.0
 51
90.0
  0
ARC
  5
6A
100
AcDbEntity
  8
1
  6
CONTINUOUS
 62
    50
100
AcDbCircle
 10
120.00075
 20
-115.249571
 30
0.0
 40
0.5
100
AcDbArc
 50
90.0
 51
180.0
  0
ARC
  5
6B
100
AcDbEntity
  8
1
  6
CONTINUOUS
 62
    50
100
AcDbCircle
 10
118.00075
 20
-115.249571
 30
0.0
 40
0.5
100
AcDbArc
 50
0.0
 51
90.0
  0
ARC
  5
6C
100
AcDbEntity
  8
1
  6
CONTINUOUS
 62
    50
100
AcDbCircle
 10
118.00075
 20
-115.249571
 30
0.0
 40
0.5
100
AcDbArc
 50
90.0
 51
180.0
  0
ARC
  5
6D
100
AcDbEntity
  8
1
  6
CONTINUOUS
 62
    50
100
AcDbCircle
 10
116.00075
 20
-115.249571
 30
0.0
 40
0.5
100
AcDbArc
 50
0.0
 51
90.0
  0
ARC
  5
6E
100
AcDbEntity
  8
1
  6
CONTINUOUS
 62
    50
100
AcDbCircle
 10
116.00075
 20
-115.249571
 30
0.0
 40
0.5
100
AcDbArc
 50
90.0
 51
180.0
  0
ARC
  5
6F
100
AcDbEntity
  8
1
  6
CONTINUOUS
 62
    50
100
AcDbCircle
 10
114.00075
 20
-115.249571
 30
0.0
 40
0.5
100
AcDbArc
 50
0.0
 51
90.0
  0
ARC
  5
70
100
AcDbEntity
  8
1
  6
CONTINUOUS
 62
    50
100
AcDbCircle
 10
114.00075
 20
-115.249571
 30
0.0
 40
0.5
100
AcDbArc
 50
90.0
 51
180.0
  0
ARC
  5
71
100
AcDbEntity
  8
1
  6
CONTINUOUS
 62
    50
100
AcDbCircle
 10
112.00075
 20
-115.249571
 30
0.0
 40
0.5
100
AcDbArc
 50
0.0
 51
90.0
  0
ARC
  5
72
100
AcDbEntity
  8
1
  6
CONTINUOUS
 62
    50
100
AcDbCircle
 10
112.00075
 20
-115.249571
 30
0.0
 40
0.5
100
AcDbArc
 50
90.0
 51
180.0
  0
ARC
  5
73
100
AcDbEntity
  8
1
  6
CONTINUOUS
 62
    50
100
AcDbCircle
 10
110.00075
 20
-115.249571
 30
0.0
 40
0.5
100
AcDbArc
 50
0.0
 51
90.0
  0
ARC
  5
74
100
AcDbEntity
  8
1
  6
CONTINUOUS
 62
    50
100
AcDbCircle
 10
110.00075
 20
-115.249571
 30
0.0
 40
0.5
100
AcDbArc
 50
90.0
 51
180.0
  0
ARC
  5
75
100
AcDbEntity
  8
1
  6
CONTINUOUS
 62
    50
100
AcDbCircle
 10
108.00075
 20
-115.249571
 30
0.0
 40
0.5
100
AcDbArc
 50
0.0
 51
90.0
  0
ARC
  5
76
100
AcDbEntity
  8
1
  6
CONTINUOUS
 62
    50
100
AcDbCircle
 10
108.00075
 20
-115.249571
 30
0.0
 40
0.5
100
AcDbArc
 50
90.0
 51
180.0
  0
ARC
  5
77
100
AcDbEntity
  8
1
  6
CONTINUOUS
 62
    50
100
AcDbCircle
 10
106.00075
 20
-115.249571
 30
0.0
 40
0.5
100
AcDbArc
 50
0.0
 51
90.0
  0
ARC
  5
78
100
AcDbEntity
  8
1
  6
CONTINUOUS
 62
    50
100
AcDbCircle
 10
106.00075
 20
-115.249571
 30
0.0
 40
0.5
100
AcDbArc
 50
90.0
 51
180.0
  0
ARC
  5
79
100
AcDbEntity
  8
1
  6
CONTINUOUS
 62
    50
100
AcDbCircle
 10
104.00075
 20
-115.249571
 30
0.0
 40
0.5
100
AcDbArc
 50
0.0
 51
90.0
  0
ARC
  5
7A
100
AcDbEntity
  8
1
  6
CONTINUOUS
 62
    50
100
AcDbCircle
 10
104.00075
 20
-115.249571
 30
0.0
 40
0.5
100
AcDbArc
 50
90.0
 51
180.0
  0
ARC
  5
7B
100
AcDbEntity
  8
1
  6
CONTINUOUS
 62
    50
100
AcDbCircle
 10
102.00075
 20
-115.249571
 30
0.0
 40
0.5
100
AcDbArc
 50
0.0
 51
90.0
  0
ARC
  5
7C
100
AcDbEntity
  8
1
  6
CONTINUOUS
 62
    50
100
AcDbCircle
 10
102.00075
 20
-115.249571
 30
0.0
 40
0.5
100
AcDbArc
 50
90.0
 51
180.0
  0
ARC
  5
7D
100
AcDbEntity
  8
1
  6
CONTINUOUS
 62
    50
100
AcDbCircle
 10
100.00075
 20
-115.249571
 30
0.0
 40
0.5
100
AcDbArc
 50
0.0
 51
90.0
  0
ARC
  5
7E
100
AcDbEntity
  8
1
  6
CONTINUOUS
 62
    50
100
AcDbCircle
 10
100.00075
 20
-115.249571
 30
0.0
 40
0.5
100
AcDbArc
 50
90.0
 51
180.0
  0
ARC
  5
7F
100
AcDbEntity
  8
1
  6
CONTINUOUS
 62
    50
100
AcDbCircle
 10
98.00075
 20
-115.249571
 30
0.0
 40
0.5
100
AcDbArc
 50
0.0
 51
90.0
  0
ARC
  5
80
100
AcDbEntity
  8
1
  6
CONTINUOUS
 62
    50
100
AcDbCircle
 10
98.00075
 20
-115.249571
 30
0.0
 40
0.5
100
AcDbArc
 50
90.0
 51
180.0
  0
ARC
  5
81
100
AcDbEntity
  8
1
  6
CONTINUOUS
 62
    50
100
AcDbCircle
 10
96.00075
 20
-115.249571
 30
0.0
 40
0.5
100
AcDbArc
 50
0.0
 51
90.0
  0
ARC
  5
82
100
AcDbEntity
  8
1
  6
CONTINUOUS
 62
    50
100
AcDbCircle
 10
96.00075
 20
-115.249571
 30
0.0
 40
0.5
100
AcDbArc
 50
90.0
 51
180.0
  0
ARC
  5
83
100
AcDbEntity
  8
1
  6
CONTINUOUS
 62
    50
100
AcDbCircle
 10
94.00075
 20
-115.249571
 30
0.0
 40
0.5
100
AcDbArc
 50
0.0
 51
90.0
  0
ARC
  5
84
100
AcDbEntity
  8
1
  6
CONTINUOUS
 62
    50
100
AcDbCircle
 10
94.00075
 20
-115.249571
 30
0.0
 40
0.5
100
AcDbArc
 50
90.0
 51
180.0
  0
ARC
  5
85
100
AcDbEntity
  8
1
  6
CONTINUOUS
 62
    50
100
AcDbCircle
 10
92.00075
 20
-115.249571
 30
0.0
 40
0.5
100
AcDbArc
 50
0.0
 51
90.0
  0
ARC
  5
86
100
AcDbEntity
  8
1
  6
CONTINUOUS
 62
    50
100
AcDbCircle
 10
92.00075
 20
-115.249571
 30
0.0
 40
0.5
100
AcDbArc
 50
90.0
 51
180.0
  0
ARC
  5
87
100
AcDbEntity
  8
1
  6
CONTINUOUS
 62
    50
100
AcDbCircle
 10
90.00075
 20
-115.249571
 30
0.0
 40
0.5
100
AcDbArc
 50
0.0
 51
90.0
  0
ARC
  5
88
100
AcDbEntity
  8
1
  6
CONTINUOUS
 62
    50
100
AcDbCircle
 10
90.00075
 20
-115.249571
 30
0.0
 40
0.5
100
AcDbArc
 50
90.0
 51
180.0
  0
ARC
  5
89
100
AcDbEntity
  8
1
  6
CONTINUOUS
 62
    50
100
AcDbCircle
 10
88.00075
 20
-115.249571
 30
0.0
 40
0.5
100
AcDbArc
 50
0.0
 51
90.0
  0
ARC
  5
8A
100
AcDbEntity
  8
1
  6
CONTINUOUS
 62
    50
100
AcDbCircle
 10
88.00075
 20
-115.249571
 30
0.0
 40
0.5
100
AcDbArc
 50
90.0
 51
180.0
  0
ARC
  5
8B
100
AcDbEntity
  8
1
  6
CONTINUOUS
 62
    50
100
AcDbCircle
 10
86.00075
 20
-115.249571
 30
0.0
 40
0.5
100
AcDbArc
 50
0.0
 51
90.0
  0
ARC
  5
8C
100
AcDbEntity
  8
1
  6
CONTINUOUS
 62
    50
100
AcDbCircle
 10
86.00075
 20
-115.249571
 30
0.0
 40
0.5
100
AcDbArc
 50
90.0
 51
180.0
  0
ARC
  5
8D
100
AcDbEntity
  8
1
  6
CONTINUOUS
 62
    50
100
AcDbCircle
 10
84.00075
 20
-115.249571
 30
0.0
 40
0.5
100
AcDbArc
 50
0.0
 51
90.0
  0
ARC
  5
8E
100
AcDbEntity
  8
1
  6
CONTINUOUS
 62
    50
100
AcDbCircle
 10
84.00075
 20
-115.249571
 30
0.0
 40
0.5
100
AcDbArc
 50
90.0
 51
180.0
  0
ARC
  5
8F
100
AcDbEntity
  8
1
  6
CONTINUOUS
 62
    50
100
AcDbCircle
 10
82.00075
 20
-115.249571
 30
0.0
 40
0.5
100
AcDbArc
 50
0.0
 51
90.0
  0
ARC
  5
90
100
AcDbEntity
  8
1
  6
CONTINUOUS
 62
    50
100
AcDbCircle
 10
82.00075
 20
-115.249571
 30
0.0
 40
0.5
100
AcDbArc
 50
90.0
 51
180.0
  0
ARC
  5
91
100
AcDbEntity
  8
1
  6
CONTINUOUS
 62
    50
100
AcDbCircle
 10
80.00075
 20
-115.249571
 30
0.0
 40
0.5
100
AcDbArc
 50
0.0
 51
90.0
  0
ARC
  5
92
100
AcDbEntity
  8
1
  6
CONTINUOUS
 62
    50
100
AcDbCircle
 10
80.00075
 20
-115.249571
 30
0.0
 40
0.5
100
AcDbArc
 50
90.0
 51
180.0
  0
ARC
  5
93
100
AcDbEntity
  8
1
  6
CONTINUOUS
 62
    50
100
AcDbCircle
 10
78.00075
 20
-115.249571
 30
0.0
 40
0.5
100
AcDbArc
 50
0.0
 51
90.0
  0
ARC
  5
94
100
AcDbEntity
  8
1
  6
CONTINUOUS
 62
    50
100
AcDbCircle
 10
78.00075
 20
-115.249571
 30
0.0
 40
0.5
100
AcDbArc
 50
90.0
 51
180.0
  0
ARC
  5
95
100
AcDbEntity
  8
1
  6
CONTINUOUS
 62
    50
100
AcDbCircle
 10
76.00075
 20
-115.249571
 30
0.0
 40
0.5
100
AcDbArc
 50
0.0
 51
90.0
  0
ARC
  5
96
100
AcDbEntity
  8
1
  6
CONTINUOUS
 62
    50
100
AcDbCircle
 10
76.00075
 20
-115.249571
 30
0.0
 40
0.5
100
AcDbArc
 50
90.0
 51
180.0
  0
ARC
  5
97
100
AcDbEntity
  8
1
  6
CONTINUOUS
 62
    50
100
AcDbCircle
 10
74.00075
 20
-115.249571
 30
0.0
 40
0.5
100
AcDbArc
 50
0.0
 51
90.0
  0
ARC
  5
98
100
AcDbEntity
  8
1
  6
CONTINUOUS
 62
    50
100
AcDbCircle
 10
74.00075
 20
-115.249571
 30
0.0
 40
0.5
100
AcDbArc
 50
90.0
 51
180.0
  0
ARC
  5
99
100
AcDbEntity
  8
1
  6
CONTINUOUS
 62
    50
100
AcDbCircle
 10
74.00075
 20
-121.749571
 30
0.0
 40
0.5
100
AcDbArc
 50
180.0
 51
270.0
  0
ARC
  5
9A
100
AcDbEntity
  8
1
  6
CONTINUOUS
 62
    50
100
AcDbCircle
 10
74.00075
 20
-121.749571
 30
0.0
 40
0.5
100
AcDbArc
 50
270.0
 51
0.0
  0
LINE
  5
9B
100
AcDbEntity
  8
1
  6
CONTINUOUS
 62
    50
100
AcDbLine
 10
74.50075
 20
-115.249571
 30
0.0
 11
74.50075
 21
-121.749571
 31
0.0
  0
LINE
  5
9C
100
AcDbEntity
  8
1
  6
CONTINUOUS
 62
    50
100
AcDbLine
 10
73.50075
 20
-115.249571
 30
0.0
 11
73.50075
 21
-121.749571
 31
0.0
  0
ARC
  5
9D
100
AcDbEntity
  8
1
  6
CONTINUOUS
 62
    50
100
AcDbCircle
 10
76.00075
 20
-121.749571
 30
0.0
 40
0.5
100
AcDbArc
 50
180.0
 51
270.0
  0
LINE
  5
9E
100
AcDbEntity
  8
1
  6
CONTINUOUS
 62
    50
100
AcDbLine
 10
76.50075
 20
-115.249571
 30
0.0
 11
76.50075
 21
-121.749571
 31
0.0
  0
ARC
  5
9F
100
AcDbEntity
  8
1
  6
CONTINUOUS
 62
    50
100
AcDbCircle
 10
76.00075
 20
-121.749571
 30
0.0
 40
0.5
100
AcDbArc
 50
270.0
 51
0.0
  0
LINE
  5
A0
100
AcDbEntity
  8
1
  6
CONTINUOUS
 62
    50
100
AcDbLine
 10
75.50075
 20
-115.249571
 30
0.0
 11
75.50075
 21
-121.749571
 31
0.0
  0
ARC
  5
A1
100
AcDbEntity
  8
1
  6
CONTINUOUS
 62
    50
100
AcDbCircle
 10
78.00075
 20
-121.749571
 30
0.0
 40
0.5
100
AcDbArc
 50
180.0
 51
270.0
  0
LINE
  5
A2
100
AcDbEntity
  8
1
  6
CONTINUOUS
 62
    50
100
AcDbLine
 10
78.50075
 20
-115.249571
 30
0.0
 11
78.50075
 21
-121.749571
 31
0.0
  0
ARC
  5
A3
100
AcDbEntity
  8
1
  6
CONTINUOUS
 62
    50
100
AcDbCircle
 10
78.00075
 20
-121.749571
 30
0.0
 40
0.5
100
AcDbArc
 50
270.0
 51
0.0
  0
LINE
  5
A4
100
AcDbEntity
  8
1
  6
CONTINUOUS
 62
    50
100
AcDbLine
 10
77.50075
 20
-115.249571
 30
0.0
 11
77.50075
 21
-121.749571
 31
0.0
  0
ARC
  5
A5
100
AcDbEntity
  8
1
  6
CONTINUOUS
 62
    50
100
AcDbCircle
 10
80.00075
 20
-121.749571
 30
0.0
 40
0.5
100
AcDbArc
 50
180.0
 51
270.0
  0
LINE
  5
A6
100
AcDbEntity
  8
1
  6
CONTINUOUS
 62
    50
100
AcDbLine
 10
80.50075
 20
-115.249571
 30
0.0
 11
80.50075
 21
-121.749571
 31
0.0
  0
ARC
  5
A7
100
AcDbEntity
  8
1
  6
CONTINUOUS
 62
    50
100
AcDbCircle
 10
80.00075
 20
-121.749571
 30
0.0
 40
0.5
100
AcDbArc
 50
270.0
 51
0.0
  0
LINE
  5
A8
100
AcDbEntity
  8
1
  6
CONTINUOUS
 62
    50
100
AcDbLine
 10
79.50075
 20
-115.249571
 30
0.0
 11
79.50075
 21
-121.749571
 31
0.0
  0
ARC
  5
A9
100
AcDbEntity
  8
1
  6
CONTINUOUS
 62
    50
100
AcDbCircle
 10
82.00075
 20
-121.749571
 30
0.0
 40
0.5
100
AcDbArc
 50
180.0
 51
270.0
  0
LINE
  5
AA
100
AcDbEntity
  8
1
  6
CONTINUOUS
 62
    50
100
AcDbLine
 10
82.50075
 20
-115.249571
 30
0.0
 11
82.50075
 21
-121.749571
 31
0.0
  0
ARC
  5
AB
100
AcDbEntity
  8
1
  6
CONTINUOUS
 62
    50
100
AcDbCircle
 10
82.00075
 20
-121.749571
 30
0.0
 40
0.5
100
AcDbArc
 50
270.0
 51
0.0
  0
LINE
  5
AC
100
AcDbEntity
  8
1
  6
CONTINUOUS
 62
    50
100
AcDbLine
 10
81.50075
 20
-115.249571
 30
0.0
 11
81.50075
 21
-121.749571
 31
0.0
  0
ARC
  5
AD
100
AcDbEntity
  8
1
  6
CONTINUOUS
 62
    50
100
AcDbCircle
 10
84.00075
 20
-121.749571
 30
0.0
 40
0.5
100
AcDbArc
 50
180.0
 51
270.0
  0
LINE
  5
AE
100
AcDbEntity
  8
1
  6
CONTINUOUS
 62
    50
100
AcDbLine
 10
84.50075
 20
-115.249571
 30
0.0
 11
84.50075
 21
-121.749571
 31
0.0
  0
ARC
  5
AF
100
AcDbEntity
  8
1
  6
CONTINUOUS
 62
    50
100
AcDbCircle
 10
84.00075
 20
-121.749571
 30
0.0
 40
0.5
100
AcDbArc
 50
270.0
 51
0.0
  0
LINE
  5
B0
100
AcDbEntity
  8
1
  6
CONTINUOUS
 62
    50
100
AcDbLine
 10
83.50075
 20
-115.249571
 30
0.0
 11
83.50075
 21
-121.749571
 31
0.0
  0
ARC
  5
B1
100
AcDbEntity
  8
1
  6
CONTINUOUS
 62
    50
100
AcDbCircle
 10
86.00075
 20
-121.749571
 30
0.0
 40
0.5
100
AcDbArc
 50
180.0
 51
270.0
  0
LINE
  5
B2
100
AcDbEntity
  8
1
  6
CONTINUOUS
 62
    50
100
AcDbLine
 10
86.50075
 20
-115.249571
 30
0.0
 11
86.50075
 21
-121.749571
 31
0.0
  0
ARC
  5
B3
100
AcDbEntity
  8
1
  6
CONTINUOUS
 62
    50
100
AcDbCircle
 10
86.00075
 20
-121.749571
 30
0.0
 40
0.5
100
AcDbArc
 50
270.0
 51
0.0
  0
LINE
  5
B4
100
AcDbEntity
  8
1
  6
CONTINUOUS
 62
    50
100
AcDbLine
 10
85.50075
 20
-115.249571
 30
0.0
 11
85.50075
 21
-121.749571
 31
0.0
  0
ARC
  5
B5
100
AcDbEntity
  8
1
  6
CONTINUOUS
 62
    50
100
AcDbCircle
 10
88.00075
 20
-121.749571
 30
0.0
 40
0.5
100
AcDbArc
 50
180.0
 51
270.0
  0
LINE
  5
B6
100
AcDbEntity
  8
1
  6
CONTINUOUS
 62
    50
100
AcDbLine
 10
88.50075
 20
-115.249571
 30
0.0
 11
88.50075
 21
-121.749571
 31
0.0
  0
ARC
  5
B7
100
AcDbEntity
  8
1
  6
CONTINUOUS
 62
    50
100
AcDbCircle
 10
88.00075
 20
-121.749571
 30
0.0
 40
0.5
100
AcDbArc
 50
270.0
 51
0.0
  0
LINE
  5
B8
100
AcDbEntity
  8
1
  6
CONTINUOUS
 62
    50
100
AcDbLine
 10
87.50075
 20
-115.249571
 30
0.0
 11
87.50075
 21
-121.749571
 31
0.0
  0
ARC
  5
B9
100
AcDbEntity
  8
1
  6
CONTINUOUS
 62
    50
100
AcDbCircle
 10
90.00075
 20
-121.749571
 30
0.0
 40
0.5
100
AcDbArc
 50
180.0
 51
270.0
  0
LINE
  5
BA
100
AcDbEntity
  8
1
  6
CONTINUOUS
 62
    50
100
AcDbLine
 10
90.50075
 20
-115.249571
 30
0.0
 11
90.50075
 21
-121.749571
 31
0.0
  0
ARC
  5
BB
100
AcDbEntity
  8
1
  6
CONTINUOUS
 62
    50
100
AcDbCircle
 10
90.00075
 20
-121.749571
 30
0.0
 40
0.5
100
AcDbArc
 50
270.0
 51
0.0
  0
LINE
  5
BC
100
AcDbEntity
  8
1
  6
CONTINUOUS
 62
    50
100
AcDbLine
 10
89.50075
 20
-115.249571
 30
0.0
 11
89.50075
 21
-121.749571
 31
0.0
  0
ARC
  5
BD
100
AcDbEntity
  8
1
  6
CONTINUOUS
 62
    50
100
AcDbCircle
 10
92.00075
 20
-121.749571
 30
0.0
 40
0.5
100
AcDbArc
 50
180.0
 51
270.0
  0
LINE
  5
BE
100
AcDbEntity
  8
1
  6
CONTINUOUS
 62
    50
100
AcDbLine
 10
92.50075
 20
-115.249571
 30
0.0
 11
92.50075
 21
-121.749571
 31
0.0
  0
ARC
  5
BF
100
AcDbEntity
  8
1
  6
CONTINUOUS
 62
    50
100
AcDbCircle
 10
92.00075
 20
-121.749571
 30
0.0
 40
0.5
100
AcDbArc
 50
270.0
 51
0.0
  0
LINE
  5
C0
100
AcDbEntity
  8
1
  6
CONTINUOUS
 62
    50
100
AcDbLine
 10
91.50075
 20
-115.249571
 30
0.0
 11
91.50075
 21
-121.749571
 31
0.0
  0
ARC
  5
C1
100
AcDbEntity
  8
1
  6
CONTINUOUS
 62
    50
100
AcDbCircle
 10
94.00075
 20
-121.749571
 30
0.0
 40
0.5
100
AcDbArc
 50
180.0
 51
270.0
  0
LINE
  5
C2
100
AcDbEntity
  8
1
  6
CONTINUOUS
 62
    50
100
AcDbLine
 10
94.50075
 20
-115.249571
 30
0.0
 11
94.50075
 21
-121.749571
 31
0.0
  0
ARC
  5
C3
100
AcDbEntity
  8
1
  6
CONTINUOUS
 62
    50
100
AcDbCircle
 10
94.00075
 20
-121.749571
 30
0.0
 40
0.5
100
AcDbArc
 50
270.0
 51
0.0
  0
LINE
  5
C4
100
AcDbEntity
  8
1
  6
CONTINUOUS
 62
    50
100
AcDbLine
 10
93.50075
 20
-115.249571
 30
0.0
 11
93.50075
 21
-121.749571
 31
0.0
  0
ARC
  5
C5
100
AcDbEntity
  8
1
  6
CONTINUOUS
 62
    50
100
AcDbCircle
 10
96.00075
 20
-121.749571
 30
0.0
 40
0.5
100
AcDbArc
 50
180.0
 51
270.0
  0
LINE
  5
C6
100
AcDbEntity
  8
1
  6
CONTINUOUS
 62
    50
100
AcDbLine
 10
96.50075
 20
-115.249571
 30
0.0
 11
96.50075
 21
-121.749571
 31
0.0
  0
ARC
  5
C7
100
AcDbEntity
  8
1
  6
CONTINUOUS
 62
    50
100
AcDbCircle
 10
96.00075
 20
-121.749571
 30
0.0
 40
0.5
100
AcDbArc
 50
270.0
 51
0.0
  0
LINE
  5
C8
100
AcDbEntity
  8
1
  6
CONTINUOUS
 62
    50
100
AcDbLine
 10
95.50075
 20
-115.249571
 30
0.0
 11
95.50075
 21
-121.749571
 31
0.0
  0
ARC
  5
C9
100
AcDbEntity
  8
1
  6
CONTINUOUS
 62
    50
100
AcDbCircle
 10
98.00075
 20
-121.749571
 30
0.0
 40
0.5
100
AcDbArc
 50
180.0
 51
270.0
  0
LINE
  5
CA
100
AcDbEntity
  8
1
  6
CONTINUOUS
 62
    50
100
AcDbLine
 10
98.50075
 20
-115.249571
 30
0.0
 11
98.50075
 21
-121.749571
 31
0.0
  0
ARC
  5
CB
100
AcDbEntity
  8
1
  6
CONTINUOUS
 62
    50
100
AcDbCircle
 10
98.00075
 20
-121.749571
 30
0.0
 40
0.5
100
AcDbArc
 50
270.0
 51
0.0
  0
LINE
  5
CC
100
AcDbEntity
  8
1
  6
CONTINUOUS
 62
    50
100
AcDbLine
 10
97.50075
 20
-115.249571
 30
0.0
 11
97.50075
 21
-121.749571
 31
0.0
  0
ARC
  5
CD
100
AcDbEntity
  8
1
  6
CONTINUOUS
 62
    50
100
AcDbCircle
 10
100.00075
 20
-121.749571
 30
0.0
 40
0.5
100
AcDbArc
 50
180.0
 51
270.0
  0
LINE
  5
CE
100
AcDbEntity
  8
1
  6
CONTINUOUS
 62
    50
100
AcDbLine
 10
100.50075
 20
-115.249571
 30
0.0
 11
100.50075
 21
-121.749571
 31
0.0
  0
ARC
  5
CF
100
AcDbEntity
  8
1
  6
CONTINUOUS
 62
    50
100
AcDbCircle
 10
100.00075
 20
-121.749571
 30
0.0
 40
0.5
100
AcDbArc
 50
270.0
 51
0.0
  0
LINE
  5
D0
100
AcDbEntity
  8
1
  6
CONTINUOUS
 62
    50
100
AcDbLine
 10
99.50075
 20
-115.249571
 30
0.0
 11
99.50075
 21
-121.749571
 31
0.0
  0
ARC
  5
D1
100
AcDbEntity
  8
1
  6
CONTINUOUS
 62
    50
100
AcDbCircle
 10
102.00075
 20
-121.749571
 30
0.0
 40
0.5
100
AcDbArc
 50
180.0
 51
270.0
  0
LINE
  5
D2
100
AcDbEntity
  8
1
  6
CONTINUOUS
 62
    50
100
AcDbLine
 10
102.50075
 20
-115.249571
 30
0.0
 11
102.50075
 21
-121.749571
 31
0.0
  0
ARC
  5
D3
100
AcDbEntity
  8
1
  6
CONTINUOUS
 62
    50
100
AcDbCircle
 10
102.00075
 20
-121.749571
 30
0.0
 40
0.5
100
AcDbArc
 50
270.0
 51
0.0
  0
LINE
  5
D4
100
AcDbEntity
  8
1
  6
CONTINUOUS
 62
    50
100
AcDbLine
 10
101.50075
 20
-115.249571
 30
0.0
 11
101.50075
 21
-121.749571
 31
0.0
  0
ARC
  5
D5
100
AcDbEntity
  8
1
  6
CONTINUOUS
 62
    50
100
AcDbCircle
 10
104.00075
 20
-121.749571
 30
0.0
 40
0.5
100
AcDbArc
 50
180.0
 51
270.0
  0
LINE
  5
D6
100
AcDbEntity
  8
1
  6
CONTINUOUS
 62
    50
100
AcDbLine
 10
104.50075
 20
-115.249571
 30
0.0
 11
104.50075
 21
-121.749571
 31
0.0
  0
ARC
  5
D7
100
AcDbEntity
  8
1
  6
CONTINUOUS
 62
    50
100
AcDbCircle
 10
104.00075
 20
-121.749571
 30
0.0
 40
0.5
100
AcDbArc
 50
270.0
 51
0.0
  0
LINE
  5
D8
100
AcDbEntity
  8
1
  6
CONTINUOUS
 62
    50
100
AcDbLine
 10
103.50075
 20
-115.249571
 30
0.0
 11
103.50075
 21
-121.749571
 31
0.0
  0
ARC
  5
D9
100
AcDbEntity
  8
1
  6
CONTINUOUS
 62
    50
100
AcDbCircle
 10
106.00075
 20
-121.749571
 30
0.0
 40
0.5
100
AcDbArc
 50
180.0
 51
270.0
  0
LINE
  5
DA
100
AcDbEntity
  8
1
  6
CONTINUOUS
 62
    50
100
AcDbLine
 10
106.50075
 20
-115.249571
 30
0.0
 11
106.50075
 21
-121.749571
 31
0.0
  0
ARC
  5
DB
100
AcDbEntity
  8
1
  6
CONTINUOUS
 62
    50
100
AcDbCircle
 10
106.00075
 20
-121.749571
 30
0.0
 40
0.5
100
AcDbArc
 50
270.0
 51
0.0
  0
LINE
  5
DC
100
AcDbEntity
  8
1
  6
CONTINUOUS
 62
    50
100
AcDbLine
 10
105.50075
 20
-115.249571
 30
0.0
 11
105.50075
 21
-121.749571
 31
0.0
  0
ARC
  5
DD
100
AcDbEntity
  8
1
  6
CONTINUOUS
 62
    50
100
AcDbCircle
 10
108.00075
 20
-121.749571
 30
0.0
 40
0.5
100
AcDbArc
 50
180.0
 51
270.0
  0
LINE
  5
DE
100
AcDbEntity
  8
1
  6
CONTINUOUS
 62
    50
100
AcDbLine
 10
108.50075
 20
-115.249571
 30
0.0
 11
108.50075
 21
-121.749571
 31
0.0
  0
ARC
  5
DF
100
AcDbEntity
  8
1
  6
CONTINUOUS
 62
    50
100
AcDbCircle
 10
108.00075
 20
-121.749571
 30
0.0
 40
0.5
100
AcDbArc
 50
270.0
 51
0.0
  0
LINE
  5
E0
100
AcDbEntity
  8
1
  6
CONTINUOUS
 62
    50
100
AcDbLine
 10
107.50075
 20
-115.249571
 30
0.0
 11
107.50075
 21
-121.749571
 31
0.0
  0
ARC
  5
E1
100
AcDbEntity
  8
1
  6
CONTINUOUS
 62
    50
100
AcDbCircle
 10
110.00075
 20
-121.749571
 30
0.0
 40
0.5
100
AcDbArc
 50
180.0
 51
270.0
  0
LINE
  5
E2
100
AcDbEntity
  8
1
  6
CONTINUOUS
 62
    50
100
AcDbLine
 10
110.50075
 20
-115.249571
 30
0.0
 11
110.50075
 21
-121.749571
 31
0.0
  0
ARC
  5
E3
100
AcDbEntity
  8
1
  6
CONTINUOUS
 62
    50
100
AcDbCircle
 10
110.00075
 20
-121.749571
 30
0.0
 40
0.5
100
AcDbArc
 50
270.0
 51
0.0
  0
LINE
  5
E4
100
AcDbEntity
  8
1
  6
CONTINUOUS
 62
    50
100
AcDbLine
 10
109.50075
 20
-115.249571
 30
0.0
 11
109.50075
 21
-121.749571
 31
0.0
  0
ARC
  5
E5
100
AcDbEntity
  8
1
  6
CONTINUOUS
 62
    50
100
AcDbCircle
 10
112.00075
 20
-121.749571
 30
0.0
 40
0.5
100
AcDbArc
 50
180.0
 51
270.0
  0
LINE
  5
E6
100
AcDbEntity
  8
1
  6
CONTINUOUS
 62
    50
100
AcDbLine
 10
112.50075
 20
-115.249571
 30
0.0
 11
112.50075
 21
-121.749571
 31
0.0
  0
ARC
  5
E7
100
AcDbEntity
  8
1
  6
CONTINUOUS
 62
    50
100
AcDbCircle
 10
112.00075
 20
-121.749571
 30
0.0
 40
0.5
100
AcDbArc
 50
270.0
 51
0.0
  0
LINE
  5
E8
100
AcDbEntity
  8
1
  6
CONTINUOUS
 62
    50
100
AcDbLine
 10
111.50075
 20
-115.249571
 30
0.0
 11
111.50075
 21
-121.749571
 31
0.0
  0
ARC
  5
E9
100
AcDbEntity
  8
1
  6
CONTINUOUS
 62
    50
100
AcDbCircle
 10
114.00075
 20
-121.749571
 30
0.0
 40
0.5
100
AcDbArc
 50
180.0
 51
270.0
  0
LINE
  5
EA
100
AcDbEntity
  8
1
  6
CONTINUOUS
 62
    50
100
AcDbLine
 10
114.50075
 20
-115.249571
 30
0.0
 11
114.50075
 21
-121.749571
 31
0.0
  0
ARC
  5
EB
100
AcDbEntity
  8
1
  6
CONTINUOUS
 62
    50
100
AcDbCircle
 10
114.00075
 20
-121.749571
 30
0.0
 40
0.5
100
AcDbArc
 50
270.0
 51
0.0
  0
LINE
  5
EC
100
AcDbEntity
  8
1
  6
CONTINUOUS
 62
    50
100
AcDbLine
 10
113.50075
 20
-115.249571
 30
0.0
 11
113.50075
 21
-121.749571
 31
0.0
  0
ARC
  5
ED
100
AcDbEntity
  8
1
  6
CONTINUOUS
 62
    50
100
AcDbCircle
 10
116.00075
 20
-121.749571
 30
0.0
 40
0.5
100
AcDbArc
 50
180.0
 51
270.0
  0
LINE
  5
EE
100
AcDbEntity
  8
1
  6
CONTINUOUS
 62
    50
100
AcDbLine
 10
116.50075
 20
-115.249571
 30
0.0
 11
116.50075
 21
-121.749571
 31
0.0
  0
ARC
  5
EF
100
AcDbEntity
  8
1
  6
CONTINUOUS
 62
    50
100
AcDbCircle
 10
116.00075
 20
-121.749571
 30
0.0
 40
0.5
100
AcDbArc
 50
270.0
 51
0.0
  0
LINE
  5
F0
100
AcDbEntity
  8
1
  6
CONTINUOUS
 62
    50
100
AcDbLine
 10
115.50075
 20
-115.249571
 30
0.0
 11
115.50075
 21
-121.749571
 31
0.0
  0
ARC
  5
F1
100
AcDbEntity
  8
1
  6
CONTINUOUS
 62
    50
100
AcDbCircle
 10
118.00075
 20
-121.749571
 30
0.0
 40
0.5
100
AcDbArc
 50
180.0
 51
270.0
  0
LINE
  5
F2
100
AcDbEntity
  8
1
  6
CONTINUOUS
 62
    50
100
AcDbLine
 10
118.50075
 20
-115.249571
 30
0.0
 11
118.50075
 21
-121.749571
 31
0.0
  0
ARC
  5
F3
100
AcDbEntity
  8
1
  6
CONTINUOUS
 62
    50
100
AcDbCircle
 10
118.00075
 20
-121.749571
 30
0.0
 40
0.5
100
AcDbArc
 50
270.0
 51
0.0
  0
LINE
  5
F4
100
AcDbEntity
  8
1
  6
CONTINUOUS
 62
    50
100
AcDbLine
 10
117.50075
 20
-115.249571
 30
0.0
 11
117.50075
 21
-121.749571
 31
0.0
  0
ARC
  5
F5
100
AcDbEntity
  8
1
  6
CONTINUOUS
 62
    50
100
AcDbCircle
 10
120.00075
 20
-121.749571
 30
0.0
 40
0.5
100
AcDbArc
 50
180.0
 51
270.0
  0
LINE
  5
F6
100
AcDbEntity
  8
1
  6
CONTINUOUS
 62
    50
100
AcDbLine
 10
120.50075
 20
-115.249571
 30
0.0
 11
120.50075
 21
-121.749571
 31
0.0
  0
ARC
  5
F7
100
AcDbEntity
  8
1
  6
CONTINUOUS
 62
    50
100
AcDbCircle
 10
120.00075
 20
-121.749571
 30
0.0
 40
0.5
100
AcDbArc
 50
270.0
 51
0.0
  0
LINE
  5
F8
100
AcDbEntity
  8
1
  6
CONTINUOUS
 62
    50
100
AcDbLine
 10
119.50075
 20
-115.249571
 30
0.0
 11
119.50075
 21
-121.749571
 31
0.0
  0
ARC
  5
F9
100
AcDbEntity
  8
1
  6
CONTINUOUS
 62
    50
100
AcDbCircle
 10
122.00075
 20
-121.749571
 30
0.0
 40
0.5
100
AcDbArc
 50
180.0
 51
270.0
  0
LINE
  5
FA
100
AcDbEntity
  8
1
  6
CONTINUOUS
 62
    50
100
AcDbLine
 10
122.50075
 20
-115.249571
 30
0.0
 11
122.50075
 21
-121.749571
 31
0.0
  0
ARC
  5
FB
100
AcDbEntity
  8
1
  6
CONTINUOUS
 62
    50
100
AcDbCircle
 10
122.00075
 20
-121.749571
 30
0.0
 40
0.5
100
AcDbArc
 50
270.0
 51
0.0
  0
LINE
  5
FC
100
AcDbEntity
  8
1
  6
CONTINUOUS
 62
    50
100
AcDbLine
 10
121.50075
 20
-115.249571
 30
0.0
 11
121.50075
 21
-121.749571
 31
0.0
  0
ARC
  5
FD
100
AcDbEntity
  8
1
  6
CONTINUOUS
 62
    50
100
AcDbCircle
 10
124.00075
 20
-121.749571
 30
0.0
 40
0.5
100
AcDbArc
 50
180.0
 51
270.0
  0
LINE
  5
FE
100
AcDbEntity
  8
1
  6
CONTINUOUS
 62
    50
100
AcDbLine
 10
124.50075
 20
-115.249571
 30
0.0
 11
124.50075
 21
-121.749571
 31
0.0
  0
ARC
  5
FF
100
AcDbEntity
  8
1
  6
CONTINUOUS
 62
    50
100
AcDbCircle
 10
124.00075
 20
-121.749571
 30
0.0
 40
0.5
100
AcDbArc
 50
270.0
 51
0.0
  0
LINE
  5
100
100
AcDbEntity
  8
1
  6
CONTINUOUS
 62
    50
100
AcDbLine
 10
123.50075
 20
-115.249571
 30
0.0
 11
123.50075
 21
-121.749571
 31
0.0
  0
ARC
  5
101
100
AcDbEntity
  8
1
  6
CONTINUOUS
 62
    50
100
AcDbCircle
 10
126.00075
 20
-121.749571
 30
0.0
 40
0.5
100
AcDbArc
 50
180.0
 51
270.0
  0
LINE
  5
102
100
AcDbEntity
  8
1
  6
CONTINUOUS
 62
    50
100
AcDbLine
 10
126.50075
 20
-115.249571
 30
0.0
 11
126.50075
 21
-121.749571
 31
0.0
  0
ARC
  5
103
100
AcDbEntity
  8
1
  6
CONTINUOUS
 62
    50
100
AcDbCircle
 10
126.00075
 20
-121.749571
 30
0.0
 40
0.5
100
AcDbArc
 50
270.0
 51
0.0
  0
LINE
  5
104
100
AcDbEntity
  8
1
  6
CONTINUOUS
 62
    50
100
AcDbLine
 10
125.50075
 20
-115.249571
 30
0.0
 11
125.50075
 21
-121.749571
 31
0.0
  0
ARC
  5
105
100
AcDbEntity
  8
1
  6
CONTINUOUS
 62
    50
100
AcDbCircle
 10
128.00075
 20
-121.749571
 30
0.0
 40
0.5
100
AcDbArc
 50
180.0
 51
270.0
  0
LINE
  5
106
100
AcDbEntity
  8
1
  6
CONTINUOUS
 62
    50
100
AcDbLine
 10
128.50075
 20
-115.249571
 30
0.0
 11
128.50075
 21
-121.749571
 31
0.0
  0
ARC
  5
107
100
AcDbEntity
  8
1
  6
CONTINUOUS
 62
    50
100
AcDbCircle
 10
128.00075
 20
-121.749571
 30
0.0
 40
0.5
100
AcDbArc
 50
270.0
 51
0.0
  0
LINE
  5
108
100
AcDbEntity
  8
1
  6
CONTINUOUS
 62
    50
100
AcDbLine
 10
127.50075
 20
-115.249571
 30
0.0
 11
127.50075
 21
-121.749571
 31
0.0
  0
ARC
  5
109
100
AcDbEntity
  8
1
  6
CONTINUOUS
 62
    50
100
AcDbCircle
 10
130.00075
 20
-121.749571
 30
0.0
 40
0.5
100
AcDbArc
 50
180.0
 51
270.0
  0
LINE
  5
10A
100
AcDbEntity
  8
1
  6
CONTINUOUS
 62
    50
100
AcDbLine
 10
130.50075
 20
-115.249571
 30
0.0
 11
130.50075
 21
-121.749571
 31
0.0
  0
ARC
  5
10B
100
AcDbEntity
  8
1
  6
CONTINUOUS
 62
    50
100
AcDbCircle
 10
130.00075
 20
-121.749571
 30
0.0
 40
0.5
100
AcDbArc
 50
270.0
 51
0.0
  0
LINE
  5
10C
100
AcDbEntity
  8
1
  6
CONTINUOUS
 62
    50
100
AcDbLine
 10
129.50075
 20
-115.249571
 30
0.0
 11
129.50075
 21
-121.749571
 31
0.0
  0
ARC
  5
10D
100
AcDbEntity
  8
1
  6
CONTINUOUS
 62
    50
100
AcDbCircle
 10
132.00075
 20
-121.749571
 30
0.0
 40
0.5
100
AcDbArc
 50
180.0
 51
270.0
  0
LINE
  5
10E
100
AcDbEntity
  8
1
  6
CONTINUOUS
 62
    50
100
AcDbLine
 10
132.50075
 20
-115.249571
 30
0.0
 11
132.50075
 21
-121.749571
 31
0.0
  0
ARC
  5
10F
100
AcDbEntity
  8
1
  6
CONTINUOUS
 62
    50
100
AcDbCircle
 10
132.00075
 20
-121.749571
 30
0.0
 40
0.5
100
AcDbArc
 50
270.0
 51
0.0
  0
LINE
  5
110
100
AcDbEntity
  8
1
  6
CONTINUOUS
 62
    50
100
AcDbLine
 10
131.50075
 20
-115.249571
 30
0.0
 11
131.50075
 21
-121.749571
 31
0.0
  0
ARC
  5
111
100
AcDbEntity
  8
1
  6
CONTINUOUS
 62
    50
100
AcDbCircle
 10
134.00075
 20
-121.749571
 30
0.0
 40
0.5
100
AcDbArc
 50
180.0
 51
270.0
  0
LINE
  5
112
100
AcDbEntity
  8
1
  6
CONTINUOUS
 62
    50
100
AcDbLine
 10
134.50075
 20
-115.249571
 30
0.0
 11
134.50075
 21
-121.749571
 31
0.0
  0
ARC
  5
113
100
AcDbEntity
  8
1
  6
CONTINUOUS
 62
    50
100
AcDbCircle
 10
134.00075
 20
-121.749571
 30
0.0
 40
0.5
100
AcDbArc
 50
270.0
 51
0.0
  0
LINE
  5
114
100
AcDbEntity
  8
1
  6
CONTINUOUS
 62
    50
100
AcDbLine
 10
133.50075
 20
-115.249571
 30
0.0
 11
133.50075
 21
-121.749571
 31
0.0
  0
ARC
  5
115
100
AcDbEntity
  8
1
  6
CONTINUOUS
 62
    50
100
AcDbCircle
 10
136.00075
 20
-121.749571
 30
0.0
 40
0.5
100
AcDbArc
 50
180.0
 51
270.0
  0
LINE
  5
116
100
AcDbEntity
  8
1
  6
CONTINUOUS
 62
    50
100
AcDbLine
 10
136.50075
 20
-115.249571
 30
0.0
 11
136.50075
 21
-121.749571
 31
0.0
  0
ARC
  5
117
100
AcDbEntity
  8
1
  6
CONTINUOUS
 62
    50
100
AcDbCircle
 10
136.00075
 20
-121.749571
 30
0.0
 40
0.5
100
AcDbArc
 50
270.0
 51
0.0
  0
LINE
  5
118
100
AcDbEntity
  8
1
  6
CONTINUOUS
 62
    50
100
AcDbLine
 10
135.50075
 20
-115.249571
 30
0.0
 11
135.50075
 21
-121.749571
 31
0.0
  0
ARC
  5
119
100
AcDbEntity
  8
1
  6
CONTINUOUS
 62
    50
100
AcDbCircle
 10
138.00075
 20
-121.749571
 30
0.0
 40
0.5
100
AcDbArc
 50
180.0
 51
270.0
  0
LINE
  5
11A
100
AcDbEntity
  8
1
  6
CONTINUOUS
 62
    50
100
AcDbLine
 10
138.50075
 20
-115.249571
 30
0.0
 11
138.50075
 21
-121.749571
 31
0.0
  0
ARC
  5
11B
100
AcDbEntity
  8
1
  6
CONTINUOUS
 62
    50
100
AcDbCircle
 10
138.00075
 20
-121.749571
 30
0.0
 40
0.5
100
AcDbArc
 50
270.0
 51
0.0
  0
LINE
  5
11C
100
AcDbEntity
  8
1
  6
CONTINUOUS
 62
    50
100
AcDbLine
 10
137.50075
 20
-115.249571
 30
0.0
 11
137.50075
 21
-121.749571
 31
0.0
  0
ARC
  5
11D
100
AcDbEntity
  8
1
  6
CONTINUOUS
 62
    50
100
AcDbCircle
 10
140.00075
 20
-121.749571
 30
0.0
 40
0.5
100
AcDbArc
 50
180.0
 51
270.0
  0
LINE
  5
11E
100
AcDbEntity
  8
1
  6
CONTINUOUS
 62
    50
100
AcDbLine
 10
140.50075
 20
-115.249571
 30
0.0
 11
140.50075
 21
-121.749571
 31
0.0
  0
ARC
  5
11F
100
AcDbEntity
  8
1
  6
CONTINUOUS
 62
    50
100
AcDbCircle
 10
140.00075
 20
-121.749571
 30
0.0
 40
0.5
100
AcDbArc
 50
270.0
 51
0.0
  0
LINE
  5
120
100
AcDbEntity
  8
1
  6
CONTINUOUS
 62
    50
100
AcDbLine
 10
139.50075
 20
-115.249571
 30
0.0
 11
139.50075
 21
-121.749571
 31
0.0
  0
ARC
  5
121
100
AcDbEntity
  8
1
  6
CONTINUOUS
 62
    50
100
AcDbCircle
 10
142.00075
 20
-121.749571
 30
0.0
 40
0.5
100
AcDbArc
 50
180.0
 51
270.0
  0
LINE
  5
122
100
AcDbEntity
  8
1
  6
CONTINUOUS
 62
    50
100
AcDbLine
 10
142.50075
 20
-115.249571
 30
0.0
 11
142.50075
 21
-121.749571
 31
0.0
  0
ARC
  5
123
100
AcDbEntity
  8
1
  6
CONTINUOUS
 62
    50
100
AcDbCircle
 10
142.00075
 20
-121.749571
 30
0.0
 40
0.5
100
AcDbArc
 50
270.0
 51
0.0
  0
LINE
  5
124
100
AcDbEntity
  8
1
  6
CONTINUOUS
 62
    50
100
AcDbLine
 10
141.50075
 20
-115.249571
 30
0.0
 11
141.50075
 21
-121.749571
 31
0.0
  0
ARC
  5
125
100
AcDbEntity
  8
1
  6
CONTINUOUS
 62
    50
100
AcDbCircle
 10
144.00075
 20
-121.749571
 30
0.0
 40
0.5
100
AcDbArc
 50
180.0
 51
270.0
  0
LINE
  5
126
100
AcDbEntity
  8
1
  6
CONTINUOUS
 62
    50
100
AcDbLine
 10
144.50075
 20
-115.249571
 30
0.0
 11
144.50075
 21
-121.749571
 31
0.0
  0
ARC
  5
127
100
AcDbEntity
  8
1
  6
CONTINUOUS
 62
    50
100
AcDbCircle
 10
144.00075
 20
-121.749571
 30
0.0
 40
0.5
100
AcDbArc
 50
270.0
 51
0.0
  0
LINE
  5
128
100
AcDbEntity
  8
1
  6
CONTINUOUS
 62
    50
100
AcDbLine
 10
143.50075
 20
-115.249571
 30
0.0
 11
143.50075
 21
-121.749571
 31
0.0
  0
ARC
  5
129
100
AcDbEntity
  8
1
  6
CONTINUOUS
 62
    50
100
AcDbCircle
 10
146.00075
 20
-121.749571
 30
0.0
 40
0.5
100
AcDbArc
 50
180.0
 51
270.0
  0
LINE
  5
12A
100
AcDbEntity
  8
1
  6
CONTINUOUS
 62
    50
100
AcDbLine
 10
146.50075
 20
-115.249571
 30
0.0
 11
146.50075
 21
-121.749571
 31
0.0
  0
ARC
  5
12B
100
AcDbEntity
  8
1
  6
CONTINUOUS
 62
    50
100
AcDbCircle
 10
146.00075
 20
-121.749571
 30
0.0
 40
0.5
100
AcDbArc
 50
270.0
 51
0.0
  0
LINE
  5
12C
100
AcDbEntity
  8
1
  6
CONTINUOUS
 62
    50
100
AcDbLine
 10
145.50075
 20
-115.249571
 30
0.0
 11
145.50075
 21
-121.749571
 31
0.0
  0
ARC
  5
12D
100
AcDbEntity
  8
1
  6
CONTINUOUS
 62
    50
100
AcDbCircle
 10
148.00075
 20
-121.749571
 30
0.0
 40
0.5
100
AcDbArc
 50
180.0
 51
270.0
  0
LINE
  5
12E
100
AcDbEntity
  8
1
  6
CONTINUOUS
 62
    50
100
AcDbLine
 10
148.50075
 20
-115.249571
 30
0.0
 11
148.50075
 21
-121.749571
 31
0.0
  0
ARC
  5
12F
100
AcDbEntity
  8
1
  6
CONTINUOUS
 62
    50
100
AcDbCircle
 10
148.00075
 20
-121.749571
 30
0.0
 40
0.5
100
AcDbArc
 50
270.0
 51
0.0
  0
LINE
  5
130
100
AcDbEntity
  8
1
  6
CONTINUOUS
 62
    50
100
AcDbLine
 10
147.50075
 20
-115.249571
 30
0.0
 11
147.50075
 21
-121.749571
 31
0.0
  0
ARC
  5
131
100
AcDbEntity
  8
1
  6
CONTINUOUS
 62
    50
100
AcDbCircle
 10
150.00075
 20
-121.749571
 30
0.0
 40
0.5
100
AcDbArc
 50
180.0
 51
270.0
  0
LINE
  5
132
100
AcDbEntity
  8
1
  6
CONTINUOUS
 62
    50
100
AcDbLine
 10
150.50075
 20
-115.249571
 30
0.0
 11
150.50075
 21
-121.749571
 31
0.0
  0
ARC
  5
133
100
AcDbEntity
  8
1
  6
CONTINUOUS
 62
    50
100
AcDbCircle
 10
150.00075
 20
-121.749571
 30
0.0
 40
0.5
100
AcDbArc
 50
270.0
 51
0.0
  0
LINE
  5
134
100
AcDbEntity
  8
1
  6
CONTINUOUS
 62
    50
100
AcDbLine
 10
149.50075
 20
-115.249571
 30
0.0
 11
149.50075
 21
-121.749571
 31
0.0
  0
ARC
  5
135
100
AcDbEntity
  8
1
  6
CONTINUOUS
 62
    50
100
AcDbCircle
 10
152.00075
 20
-121.749571
 30
0.0
 40
0.5
100
AcDbArc
 50
180.0
 51
270.0
  0
LINE
  5
136
100
AcDbEntity
  8
1
  6
CONTINUOUS
 62
    50
100
AcDbLine
 10
152.50075
 20
-115.249571
 30
0.0
 11
152.50075
 21
-121.749571
 31
0.0
  0
ARC
  5
137
100
AcDbEntity
  8
1
  6
CONTINUOUS
 62
    50
100
AcDbCircle
 10
152.00075
 20
-121.749571
 30
0.0
 40
0.5
100
AcDbArc
 50
270.0
 51
0.0
  0
LINE
  5
138
100
AcDbEntity
  8
1
  6
CONTINUOUS
 62
    50
100
AcDbLine
 10
151.50075
 20
-115.249571
 30
0.0
 11
151.50075
 21
-121.749571
 31
0.0
  0
LINE
  5
139
100
AcDbEntity
  8
1
  6
CONTINUOUS
 62
    50
100
AcDbLine
 10
153.50075
 20
-115.249571
 30
0.0
 11
153.50075
 21
-121.749571
 31
0.0
  0
ARC
  5
13A
100
AcDbEntity
  8
1
  6
CONTINUOUS
 62
    50
100
AcDbCircle
 10
154.00075
 20
-121.749571
 30
0.0
 40
0.5
100
AcDbArc
 50
270.0
 51
0.0
  0
LINE
  5
13B
100
AcDbEntity
  8
1
  6
CONTINUOUS
 62
    50
100
AcDbLine
 10
154.50075
 20
-115.249571
 30
0.0
 11
154.50075
 21
-121.749571
 31
0.0
  0
ARC
  5
13C
100
AcDbEntity
  8
1
  6
CONTINUOUS
 62
    50
100
AcDbCircle
 10
154.00075
 20
-121.749571
 30
0.0
 40
0.5
100
AcDbArc
 50
180.0
 51
270.0
  0
LINE
  5
13D
100
AcDbEntity
  8
1
  6
CONTINUOUS
 62
    50
100
AcDbLine
 10
155.50075
 20
-115.249571
 30
0.0
 11
155.50075
 21
-121.749571
 31
0.0
  0
ARC
  5
13E
100
AcDbEntity
  8
1
  6
CONTINUOUS
 62
    50
100
AcDbCircle
 10
156.00075
 20
-121.749571
 30
0.0
 40
0.5
100
AcDbArc
 50
270.0
 51
0.0
  0
LINE
  5
13F
100
AcDbEntity
  8
1
  6
CONTINUOUS
 62
    50
100
AcDbLine
 10
156.50075
 20
-115.249571
 30
0.0
 11
156.50075
 21
-121.749571
 31
0.0
  0
ARC
  5
140
100
AcDbEntity
  8
1
  6
CONTINUOUS
 62
    50
100
AcDbCircle
 10
156.00075
 20
-121.749571
 30
0.0
 40
0.5
100
AcDbArc
 50
180.0
 51
270.0
  0
LINE
  5
141
100
AcDbEntity
  8
1
  6
CONTINUOUS
 62
    50
100
AcDbLine
 10
157.50075
 20
-115.249571
 30
0.0
 11
157.50075
 21
-121.749571
 31
0.0
  0
ARC
  5
142
100
AcDbEntity
  8
1
  6
CONTINUOUS
 62
    50
100
AcDbCircle
 10
158.00075
 20
-121.749571
 30
0.0
 40
0.5
100
AcDbArc
 50
270.0
 51
0.0
  0
LINE
  5
143
100
AcDbEntity
  8
1
  6
CONTINUOUS
 62
    50
100
AcDbLine
 10
158.50075
 20
-115.249571
 30
0.0
 11
158.50075
 21
-121.749571
 31
0.0
  0
ARC
  5
144
100
AcDbEntity
  8
1
  6
CONTINUOUS
 62
    50
100
AcDbCircle
 10
158.00075
 20
-121.749571
 30
0.0
 40
0.5
100
AcDbArc
 50
180.0
 51
270.0
  0
LINE
  5
145
100
AcDbEntity
  8
1
  6
CONTINUOUS
 62
    50
100
AcDbLine
 10
159.50075
 20
-115.249571
 30
0.0
 11
159.50075
 21
-121.749571
 31
0.0
  0
ARC
  5
146
100
AcDbEntity
  8
1
  6
CONTINUOUS
 62
    50
100
AcDbCircle
 10
160.00075
 20
-121.749571
 30
0.0
 40
0.5
100
AcDbArc
 50
270.0
 51
0.0
  0
LINE
  5
147
100
AcDbEntity
  8
1
  6
CONTINUOUS
 62
    50
100
AcDbLine
 10
160.50075
 20
-115.249571
 30
0.0
 11
160.50075
 21
-121.749571
 31
0.0
  0
ARC
  5
148
100
AcDbEntity
  8
1
  6
CONTINUOUS
 62
    50
100
AcDbCircle
 10
160.00075
 20
-121.749571
 30
0.0
 40
0.5
100
AcDbArc
 50
180.0
 51
270.0
  0
LINE
  5
149
100
AcDbEntity
  8
1
  6
CONTINUOUS
 62
    50
100
AcDbLine
 10
161.50075
 20
-115.249571
 30
0.0
 11
161.50075
 21
-121.749571
 31
0.0
  0
ARC
  5
14A
100
AcDbEntity
  8
1
  6
CONTINUOUS
 62
    50
100
AcDbCircle
 10
162.00075
 20
-121.749571
 30
0.0
 40
0.5
100
AcDbArc
 50
270.0
 51
0.0
  0
LINE
  5
14B
100
AcDbEntity
  8
1
  6
CONTINUOUS
 62
    50
100
AcDbLine
 10
162.50075
 20
-115.249571
 30
0.0
 11
162.50075
 21
-121.749571
 31
0.0
  0
ARC
  5
14C
100
AcDbEntity
  8
1
  6
CONTINUOUS
 62
    50
100
AcDbCircle
 10
162.00075
 20
-121.749571
 30
0.0
 40
0.5
100
AcDbArc
 50
180.0
 51
270.0
  0
MTEXT
  5
14D
100
AcDbEntity
  8
1
  6
CONTINUOUS
 62
    50
100
AcDbMText
 10
-8.125
 20
-74.0875
 30
0.0
 40
1.25
 41
0.0
 71
     1
 72
     1
  1
\T0.778;\W0.934;\A1;RS-485
  7
MX_NOTE_STANDARD
 11
0.0
 21
-1.0
 31
0.0
  0
LINE
  5
14E
100
AcDbEntity
  8
1
  6
CONTINUOUS
 62
     7
100
AcDbLine
 10
-15.0
 20
97.9805
 30
0.0
 11
-15.0
 21
107.0205
 31
0.0
  0
ARC
  5
14F
100
AcDbEntity
  8
1
  6
CONTINUOUS
 62
     7
100
AcDbCircle
 10
-14.7505
 20
107.0205
 30
0.0
 40
0.25
100
AcDbArc
 50
94.70651
 51
180.0
  0
ARC
  5
150
100
AcDbEntity
  8
1
  6
CONTINUOUS
 62
     7
100
AcDbCircle
 10
-14.75
 20
107.0205
 30
0.0
 40
0.25
100
AcDbArc
 50
94.82077
 51
180.0
  0
ARC
  5
151
100
AcDbEntity
  8
1
  6
CONTINUOUS
 62
     7
100
AcDbCircle
 10
-14.75
 20
97.9805
 30
0.0
 40
0.25
100
AcDbArc
 50
180.0
 51
265.17924
  0
ARC
  5
152
100
AcDbEntity
  8
1
  6
CONTINUOUS
 62
     7
100
AcDbCircle
 10
-14.75
 20
97.9805
 30
0.0
 40
0.25
100
AcDbArc
 50
180.0
 51
265.17924
  0
ARC
  5
153
100
AcDbEntity
  8
1
  6
CONTINUOUS
 62
     7
100
AcDbCircle
 10
-14.75
 20
-62.9805
 30
0.0
 40
0.25
100
AcDbArc
 50
94.82076
 51
180.0
  0
ARC
  5
154
100
AcDbEntity
  8
1
  6
CONTINUOUS
 62
     7
100
AcDbCircle
 10
-14.75
 20
-62.9805
 30
0.0
 40
0.25
100
AcDbArc
 50
94.82076
 51
180.0
  0
ARC
  5
155
100
AcDbEntity
  8
1
  6
CONTINUOUS
 62
     7
100
AcDbCircle
 10
-14.75
 20
-72.0205
 30
0.0
 40
0.25
100
AcDbArc
 50
180.0
 51
265.17923
  0
ARC
  5
156
100
AcDbEntity
  8
1
  6
CONTINUOUS
 62
     7
100
AcDbCircle
 10
-14.7505
 20
-72.0205
 30
0.0
 40
0.25
100
AcDbArc
 50
180.0
 51
265.29349
  0
LINE
  5
157
100
AcDbEntity
  8
1
  6
CONTINUOUS
 62
     7
100
AcDbLine
 10
-15.0
 20
-62.9805
 30
0.0
 11
-15.0
 21
-72.0205
 31
0.0
  0
LINE
  5
158
100
AcDbEntity
  8
1
  6
CONTINUOUS
 62
    50
100
AcDbLine
 10
-12.0
 20
-85.5
 30
0.0
 11
8.0
 21
-85.5
 31
0.0
  0
LINE
  5
159
100
AcDbEntity
  8
1
  6
CONTINUOUS
 62
    50
100
AcDbLine
 10
-12.0
 20
120.5
 30
0.0
 11
8.0
 21
120.5
 31
0.0
  0
LINE
  5
15A
100
AcDbEntity
  8
1
  6
CONTINUOUS
 62
    50
100
AcDbLine
 10
8.0
 20
120.5
 30
0.0
 11
8.0
 21
-85.5
 31
0.0
  0
LINE
  5
15B
100
AcDbEntity
  8
1
  6
CONTINUOUS
 62
    50
100
AcDbLine
 10
8.0
 20
120.5
 30
0.0
 11
9.853553
 21
122.353553
 31
0.0
  0
LINE
  5
15C
100
AcDbEntity
  8
1
  6
CONTINUOUS
 62
    50
100
AcDbLine
 10
8.0
 20
-85.5
 30
0.0
 11
9.853553
 21
-87.353553
 31
0.0
  0
LINE
  5
15D
100
AcDbEntity
  8
1
  6
CONTINUOUS
 62
    50
100
AcDbLine
 10
-12.0
 20
-87.5
 30
0.0
 11
9.5
 21
-87.5
 31
0.0
  0
LINE
  5
15E
100
AcDbEntity
  8
1
  6
CONTINUOUS
 62
    50
100
AcDbLine
 10
10.0
 20
122.0
 30
0.0
 11
10.0
 21
-87.0
 31
0.0
  0
LINE
  5
15F
100
AcDbEntity
  8
1
  6
CONTINUOUS
 62
    50
100
AcDbLine
 10
-12.0
 20
122.5
 30
0.0
 11
9.5
 21
122.5
 31
0.0
  0
LINE
  5
160
100
AcDbEntity
  8
1
  6
CONTINUOUS
 62
    50
100
AcDbLine
 10
-12.0
 20
122.5
 30
0.0
 11
-12.0
 21
120.5
 31
0.0
  0
LINE
  5
161
100
AcDbEntity
  8
1
  6
CONTINUOUS
 62
    50
100
AcDbLine
 10
-12.0
 20
-85.5
 30
0.0
 11
-12.0
 21
-87.5
 31
0.0
  0
ARC
  5
162
100
AcDbEntity
  8
1
  6
CONTINUOUS
 62
    50
100
AcDbCircle
 10
9.5
 20
122.0
 30
0.0
 40
0.5
100
AcDbArc
 50
0.0
 51
90.0
  0
ARC
  5
163
100
AcDbEntity
  8
1
  6
CONTINUOUS
 62
    50
100
AcDbCircle
 10
9.5
 20
-87.0
 30
0.0
 40
0.5
100
AcDbArc
 50
270.0
 51
0.0
  0
LINE
  5
164
100
AcDbEntity
  8
1
  6
CONTINUOUS
 62
   255
100
AcDbLine
 10
-12.0
 20
122.0
 30
0.0
 11
-12.0
 21
-87.0
 31
0.0
  0
LINE
  5
165
100
AcDbEntity
  8
1
  6
CONTINUOUS
 62
   160
100
AcDbLine
 10
-9.87
 20
-87.5
 30
0.0
 11
-6.13
 21
-87.5
 31
0.0
  0
ARC
  5
166
100
AcDbEntity
  8
1
  6
CONTINUOUS
 62
   160
100
AcDbCircle
 10
-8.0
 20
-84.249
 30
0.0
 40
4.582
100
AcDbArc
 50
245.90798
 51
294.092019
  0
ARC
  5
167
100
AcDbEntity
  8
1
  6
CONTINUOUS
 62
   160
100
AcDbCircle
 10
-9.122
 20
-87.966
 30
0.0
 40
0.881
100
AcDbArc
 50
148.07731
 51
211.86747
  0
ARC
  5
168
100
AcDbEntity
  8
1
  6
CONTINUOUS
 62
   160
100
AcDbCircle
 10
-6.878
 20
-87.966
 30
0.0
 40
0.881
100
AcDbArc
 50
328.132529
 51
31.92268
  0
LINE
  5
169
100
AcDbEntity
  8
1
  6
CONTINUOUS
 62
   160
100
AcDbLine
 10
-9.87
 20
122.5
 30
0.0
 11
-6.13
 21
122.5
 31
0.0
  0
ARC
  5
16A
100
AcDbEntity
  8
1
  6
CONTINUOUS
 62
   160
100
AcDbCircle
 10
-8.0
 20
119.248
 30
0.0
 40
4.582
100
AcDbArc
 50
65.91308
 51
114.08691
  0
ARC
  5
16B
100
AcDbEntity
  8
1
  6
CONTINUOUS
 62
   160
100
AcDbCircle
 10
-9.122
 20
122.965
 30
0.0
 40
0.881
100
AcDbArc
 50
148.07731
 51
211.86747
  0
ARC
  5
16C
100
AcDbEntity
  8
1
  6
CONTINUOUS
 62
   160
100
AcDbCircle
 10
-6.878
 20
122.965
 30
0.0
 40
0.881
100
AcDbArc
 50
328.132529
 51
31.92268
  0
LINE
  5
16D
100
AcDbEntity
  8
1
  6
CONTINUOUS
 62
   160
100
AcDbLine
 10
-9.87
 20
-87.5
 30
0.0
 11
-6.13
 21
-87.5
 31
0.0
  0
LINE
  5
16E
100
AcDbEntity
  8
1
  6
CONTINUOUS
 62
   160
100
AcDbLine
 10
4.13
 20
-87.5
 30
0.0
 11
7.87
 21
-87.5
 31
0.0
  0
ARC
  5
16F
100
AcDbEntity
  8
1
  6
CONTINUOUS
 62
   160
100
AcDbCircle
 10
7.122
 20
-87.966
 30
0.0
 40
0.881
100
AcDbArc
 50
328.132529
 51
31.92268
  0
ARC
  5
170
100
AcDbEntity
  8
1
  6
CONTINUOUS
 62
   160
100
AcDbCircle
 10
4.878
 20
-87.966
 30
0.0
 40
0.881
100
AcDbArc
 50
148.07731
 51
211.86747
  0
ARC
  5
171
100
AcDbEntity
  8
1
  6
CONTINUOUS
 62
   160
100
AcDbCircle
 10
6.0
 20
-84.249
 30
0.0
 40
4.582
100
AcDbArc
 50
245.90798
 51
294.092019
  0
LINE
  5
172
100
AcDbEntity
  8
1
  6
CONTINUOUS
 62
   160
100
AcDbLine
 10
4.13
 20
-87.5
 30
0.0
 11
7.87
 21
-87.5
 31
0.0
  0
ARC
  5
173
100
AcDbEntity
  8
1
  6
CONTINUOUS
 62
   160
100
AcDbCircle
 10
7.122
 20
122.965
 30
0.0
 40
0.881
100
AcDbArc
 50
328.132529
 51
31.92268
  0
ARC
  5
174
100
AcDbEntity
  8
1
  6
CONTINUOUS
 62
   160
100
AcDbCircle
 10
4.878
 20
122.965
 30
0.0
 40
0.881
100
AcDbArc
 50
148.07731
 51
211.86747
  0
ARC
  5
175
100
AcDbEntity
  8
1
  6
CONTINUOUS
 62
   160
100
AcDbCircle
 10
6.0
 20
119.248
 30
0.0
 40
4.582
100
AcDbArc
 50
65.91308
 51
114.08691
  0
LINE
  5
176
100
AcDbEntity
  8
1
  6
CONTINUOUS
 62
   160
100
AcDbLine
 10
4.13
 20
122.5
 30
0.0
 11
7.87
 21
122.5
 31
0.0
  0
LINE
  5
177
100
AcDbEntity
  8
1
  6
CONTINUOUS
 62
   160
100
AcDbLine
 10
-9.40225
 20
122.5
 30
0.0
 11
-6.59725
 21
122.5
 31
0.0
  0
ARC
  5
178
100
AcDbEntity
  8
1
  6
CONTINUOUS
 62
   160
100
AcDbCircle
 10
-7.99975
 20
120.061375
 30
0.0
 40
3.436125
100
AcDbArc
 50
65.91054
 51
114.08947
  0
ARC
  5
179
100
AcDbEntity
  8
1
  6
CONTINUOUS
 62
   160
100
AcDbCircle
 10
-8.84125
 20
122.849125
 30
0.0
 40
0.66075
100
AcDbArc
 50
148.10492
 51
211.89585
  0
ARC
  5
17A
100
AcDbEntity
  8
1
  6
CONTINUOUS
 62
   160
100
AcDbCircle
 10
-7.15825
 20
122.849125
 30
0.0
 40
0.66075
100
AcDbArc
 50
-31.89585
 51
31.89509
  0
ARC
  5
17B
100
AcDbEntity
  8
1
  6
CONTINUOUS
 62
   160
100
AcDbCircle
 10
-7.158974
 20
-87.848794
 30
0.0
 40
0.66075
100
AcDbArc
 50
328.104516
 51
31.895456
  0
ARC
  5
17C
100
AcDbEntity
  8
1
  6
CONTINUOUS
 62
   160
100
AcDbCircle
 10
-8.841974
 20
-87.848782
 30
0.0
 40
0.66075
100
AcDbArc
 50
148.103756
 51
211.894686
  0
ARC
  5
17D
100
AcDbEntity
  8
1
  6
CONTINUOUS
 62
   160
100
AcDbCircle
 10
-8.000455
 20
-85.061038
 30
0.0
 40
3.436125
100
AcDbArc
 50
245.910136
 51
294.089066
  0
LINE
  5
17E
100
AcDbEntity
  8
1
  6
CONTINUOUS
 62
   160
100
AcDbLine
 10
-9.402972
 20
-87.499654
 30
0.0
 11
-6.597972
 21
-87.499673
 31
0.0
  0
LINE
  5
17F
100
AcDbEntity
  8
1
  6
CONTINUOUS
 62
     7
100
AcDbLine
 10
-12.0
 20
97.5005
 30
0.0
 11
-14.771
 21
97.7315
 31
0.0
  0
LINE
  5
180
100
AcDbEntity
  8
1
  6
CONTINUOUS
 62
     7
100
AcDbLine
 10
-14.771
 20
107.2695
 30
0.0
 11
-12.0
 21
107.5005
 31
0.0
  0
LINE
  5
181
100
AcDbEntity
  8
1
  6
CONTINUOUS
 62
     7
100
AcDbLine
 10
-12.0
 20
-62.5005
 30
0.0
 11
-14.771
 21
-62.7315
 31
0.0
  0
LINE
  5
182
100
AcDbEntity
  8
1
  6
CONTINUOUS
 62
     7
100
AcDbLine
 10
-14.771
 20
-72.2695
 30
0.0
 11
-12.0
 21
-72.5005
 31
0.0
  0
LINE
  5
183
100
AcDbEntity
  8
1
  6
CONTINUOUS
 62
    20
100
AcDbLine
 10
-7.65
 20
-83.05
 30
0.0
 11
-2.3
 21
-83.05
 31
0.0
  0
LINE
  5
184
100
AcDbEntity
  8
1
  6
CONTINUOUS
 62
    20
100
AcDbLine
 10
-7.65
 20
-71.15
 30
0.0
 11
-2.3
 21
-71.15
 31
0.0
  0
LINE
  5
185
100
AcDbEntity
  8
1
  6
CONTINUOUS
 62
    20
100
AcDbLine
 10
-2.3
 20
-71.15
 30
0.0
 11
-2.3
 21
-83.05
 31
0.0
  0
LINE
  5
186
100
AcDbEntity
  8
1
  6
CONTINUOUS
 62
    20
100
AcDbLine
 10
-7.65
 20
-71.15
 30
0.0
 11
-7.65
 21
-83.05
 31
0.0
  0
LINE
  5
187
100
AcDbEntity
  8
1
  6
CONTINUOUS
 62
     7
100
AcDbLine
 10
-7.65
 20
-71.15
 30
0.0
 11
-2.3
 21
-71.15
 31
0.0
  0
LINE
  5
188
100
AcDbEntity
  8
1
  6
CONTINUOUS
 62
     7
100
AcDbLine
 10
-2.3
 20
-71.15
 30
0.0
 11
-2.3
 21
-83.05
 31
0.0
  0
LINE
  5
189
100
AcDbEntity
  8
1
  6
CONTINUOUS
 62
     7
100
AcDbLine
 10
-7.65
 20
-83.05
 30
0.0
 11
-2.3
 21
-83.05
 31
0.0
  0
LINE
  5
18A
100
AcDbEntity
  8
1
  6
CONTINUOUS
 62
     7
100
AcDbLine
 10
-7.65
 20
-71.15
 30
0.0
 11
-7.65
 21
-83.05
 31
0.0
  0
LINE
  5
18B
100
AcDbEntity
  8
1
  6
CONTINUOUS
 62
    80
100
AcDbLine
 10
-7.35
 20
-81.3
 30
0.0
 11
-7.35
 21
-79.3
 31
0.0
  0
LINE
  5
18C
100
AcDbEntity
  8
1
  6
CONTINUOUS
 62
    80
100
AcDbLine
 10
-7.35
 20
-74.9
 30
0.0
 11
-7.35
 21
-72.9
 31
0.0
  0
LINE
  5
18D
100
AcDbEntity
  8
1
  6
CONTINUOUS
 62
    80
100
AcDbLine
 10
-2.5
 20
-76.35
 30
0.0
 11
-5.9
 21
-76.35
 31
0.0
  0
LINE
  5
18E
100
AcDbEntity
  8
1
  6
CONTINUOUS
 62
    80
100
AcDbLine
 10
-2.5
 20
-71.45
 30
0.0
 11
-5.9
 21
-71.45
 31
0.0
  0
LINE
  5
18F
100
AcDbEntity
  8
1
  6
CONTINUOUS
 62
    80
100
AcDbLine
 10
-2.5
 20
-76.35
 30
0.0
 11
-2.5
 21
-71.45
 31
0.0
  0
LINE
  5
190
100
AcDbEntity
  8
1
  6
CONTINUOUS
 62
    80
100
AcDbLine
 10
-5.9
 20
-76.35
 30
0.0
 11
-5.9
 21
-75.525
 31
0.0
  0
LINE
  5
191
100
AcDbEntity
  8
1
  6
CONTINUOUS
 62
    80
100
AcDbLine
 10
-6.9
 20
-75.525
 30
0.0
 11
-6.9
 21
-74.9
 31
0.0
  0
LINE
  5
192
100
AcDbEntity
  8
1
  6
CONTINUOUS
 62
    80
100
AcDbLine
 10
-5.9
 20
-75.525
 30
0.0
 11
-6.9
 21
-75.525
 31
0.0
  0
LINE
  5
193
100
AcDbEntity
  8
1
  6
CONTINUOUS
 62
    80
100
AcDbLine
 10
-5.9
 20
-72.275
 30
0.0
 11
-6.9
 21
-72.275
 31
0.0
  0
LINE
  5
194
100
AcDbEntity
  8
1
  6
CONTINUOUS
 62
    80
100
AcDbLine
 10
-5.9
 20
-72.275
 30
0.0
 11
-5.9
 21
-71.45
 31
0.0
  0
LINE
  5
195
100
AcDbEntity
  8
1
  6
CONTINUOUS
 62
    80
100
AcDbLine
 10
-6.9
 20
-72.9
 30
0.0
 11
-6.9
 21
-72.275
 31
0.0
  0
LINE
  5
196
100
AcDbEntity
  8
1
  6
CONTINUOUS
 62
    80
100
AcDbLine
 10
-6.9
 20
-79.3
 30
0.0
 11
-6.9
 21
-78.675
 31
0.0
  0
LINE
  5
197
100
AcDbEntity
  8
1
  6
CONTINUOUS
 62
    80
100
AcDbLine
 10
-5.9
 20
-78.675
 30
0.0
 11
-5.9
 21
-77.85
 31
0.0
  0
LINE
  5
198
100
AcDbEntity
  8
1
  6
CONTINUOUS
 62
    80
100
AcDbLine
 10
-5.9
 20
-78.675
 30
0.0
 11
-6.9
 21
-78.675
 31
0.0
  0
LINE
  5
199
100
AcDbEntity
  8
1
  6
CONTINUOUS
 62
    80
100
AcDbLine
 10
-5.9
 20
-81.925
 30
0.0
 11
-6.9
 21
-81.925
 31
0.0
  0
LINE
  5
19A
100
AcDbEntity
  8
1
  6
CONTINUOUS
 62
    80
100
AcDbLine
 10
-6.9
 20
-81.925
 30
0.0
 11
-6.9
 21
-81.3
 31
0.0
  0
LINE
  5
19B
100
AcDbEntity
  8
1
  6
CONTINUOUS
 62
    80
100
AcDbLine
 10
-5.9
 20
-82.75
 30
0.0
 11
-5.9
 21
-81.925
 31
0.0
  0
LINE
  5
19C
100
AcDbEntity
  8
1
  6
CONTINUOUS
 62
    80
100
AcDbLine
 10
-2.5
 20
-82.75
 30
0.0
 11
-2.5
 21
-77.85
 31
0.0
  0
LINE
  5
19D
100
AcDbEntity
  8
1
  6
CONTINUOUS
 62
    80
100
AcDbLine
 10
-2.5
 20
-77.85
 30
0.0
 11
-5.9
 21
-77.85
 31
0.0
  0
LINE
  5
19E
100
AcDbEntity
  8
1
  6
CONTINUOUS
 62
    80
100
AcDbLine
 10
-2.5
 20
-82.75
 30
0.0
 11
-5.9
 21
-82.75
 31
0.0
  0
LINE
  5
19F
100
AcDbEntity
  8
1
  6
CONTINUOUS
 62
    80
100
AcDbLine
 10
-2.3
 20
-77.25
 30
0.0
 11
-7.6
 21
-77.25
 31
0.0
  0
LINE
  5
1A0
100
AcDbEntity
  8
1
  6
CONTINUOUS
 62
    80
100
AcDbLine
 10
-6.9
 20
-81.3
 30
0.0
 11
-7.35
 21
-81.3
 31
0.0
  0
LINE
  5
1A1
100
AcDbEntity
  8
1
  6
CONTINUOUS
 62
    80
100
AcDbLine
 10
-6.9
 20
-79.3
 30
0.0
 11
-7.35
 21
-79.3
 31
0.0
  0
LINE
  5
1A2
100
AcDbEntity
  8
1
  6
CONTINUOUS
 62
    80
100
AcDbLine
 10
-6.9
 20
-72.9
 30
0.0
 11
-7.35
 21
-72.9
 31
0.0
  0
LINE
  5
1A3
100
AcDbEntity
  8
1
  6
CONTINUOUS
 62
    80
100
AcDbLine
 10
-6.9
 20
-74.9
 30
0.0
 11
-7.35
 21
-74.9
 31
0.0
  0
LINE
  5
1A4
100
AcDbEntity
  8
1
  6
CONTINUOUS
 62
    80
100
AcDbLine
 10
-2.3
 20
-76.95
 30
0.0
 11
-7.6
 21
-76.95
 31
0.0
  0
CIRCLE
  5
1A5
100
AcDbEntity
  8
1
  6
CONTINUOUS
 62
   160
100
AcDbCircle
 10
5.25
 20
-82.5
 30
0.0
 40
1.8
  0
LINE
  5
1A6
100
AcDbEntity
  8
1
  6
CONTINUOUS
 62
   160
100
AcDbLine
 10
6.134
 20
-83.031
 30
0.0
 11
5.78
 21
-83.384
 31
0.0
  0
LINE
  5
1A7
100
AcDbEntity
  8
1
  6
CONTINUOUS
 62
   160
100
AcDbLine
 10
4.719
 20
-81.616
 30
0.0
 11
4.366
 21
-81.97
 31
0.0
  0
LINE
  5
1A8
100
AcDbEntity
  8
1
  6
CONTINUOUS
 62
   160
100
AcDbLine
 10
4.366
 20
-83.031
 30
0.0
 11
4.719
 21
-83.384
 31
0.0
  0
LINE
  5
1A9
100
AcDbEntity
  8
1
  6
CONTINUOUS
 62
   160
100
AcDbLine
 10
5.78
 20
-81.616
 30
0.0
 11
6.134
 21
-81.97
 31
0.0
  0
LINE
  5
1AA
100
AcDbEntity
  8
1
  6
CONTINUOUS
 62
   160
100
AcDbLine
 10
4.719
 20
-81.616
 30
0.0
 11
4.967
 21
-81.864
 31
0.0
  0
LINE
  5
1AB
100
AcDbEntity
  8
1
  6
CONTINUOUS
 62
   160
100
AcDbLine
 10
5.886
 20
-82.783
 30
0.0
 11
6.134
 21
-83.031
 31
0.0
  0
LINE
  5
1AC
100
AcDbEntity
  8
1
  6
CONTINUOUS
 62
   160
100
AcDbLine
 10
5.78
 20
-81.616
 30
0.0
 11
5.533
 21
-81.864
 31
0.0
  0
LINE
  5
1AD
100
AcDbEntity
  8
1
  6
CONTINUOUS
 62
   160
100
AcDbLine
 10
4.613
 20
-82.783
 30
0.0
 11
4.366
 21
-83.031
 31
0.0
  0
LINE
  5
1AE
100
AcDbEntity
  8
1
  6
CONTINUOUS
 62
   160
100
AcDbLine
 10
4.366
 20
-81.97
 30
0.0
 11
4.613
 21
-82.217
 31
0.0
  0
LINE
  5
1AF
100
AcDbEntity
  8
1
  6
CONTINUOUS
 62
   160
100
AcDbLine
 10
5.533
 20
-83.137
 30
0.0
 11
5.78
 21
-83.384
 31
0.0
  0
LINE
  5
1B0
100
AcDbEntity
  8
1
  6
CONTINUOUS
 62
   160
100
AcDbLine
 10
6.134
 20
-81.97
 30
0.0
 11
5.886
 21
-82.217
 31
0.0
  0
LINE
  5
1B1
100
AcDbEntity
  8
1
  6
CONTINUOUS
 62
   160
100
AcDbLine
 10
4.967
 20
-83.137
 30
0.0
 11
4.719
 21
-83.384
 31
0.0
  0
CIRCLE
  5
1B2
100
AcDbEntity
  8
1
  6
CONTINUOUS
 62
   160
100
AcDbCircle
 10
5.249
 20
-81.581
 30
0.0
 40
0.2
  0
ARC
  5
1B3
100
AcDbEntity
  8
1
  6
CONTINUOUS
 62
   160
100
AcDbCircle
 10
6.169
 20
-82.5
 30
0.0
 40
0.4
100
AcDbArc
 50
135.0
 51
225.0
  0
ARC
  5
1B4
100
AcDbEntity
  8
1
  6
CONTINUOUS
 62
   160
100
AcDbCircle
 10
5.25
 20
-81.581
 30
0.0
 40
0.4
100
AcDbArc
 50
225.0
 51
315.0
  0
ARC
  5
1B5
100
AcDbEntity
  8
1
  6
CONTINUOUS
 62
   160
100
AcDbCircle
 10
4.331
 20
-82.5
 30
0.0
 40
0.4
100
AcDbArc
 50
314.898591
 51
45.1014
  0
ARC
  5
1B6
100
AcDbEntity
  8
1
  6
CONTINUOUS
 62
   160
100
AcDbCircle
 10
5.25
 20
-83.419
 30
0.0
 40
0.4
100
AcDbArc
 50
44.89859
 51
135.1014
  0
CIRCLE
  5
1B7
100
AcDbEntity
  8
1
  6
CONTINUOUS
 62
   160
100
AcDbCircle
 10
5.25
 20
-82.5
 30
0.0
 40
2.0
  0
CIRCLE
  5
1B8
100
AcDbEntity
  8
1
  6
CONTINUOUS
 62
    20
100
AcDbCircle
 10
5.25
 20
-82.5
 30
0.0
 40
2.25
  0
LINE
  5
1B9
100
AcDbEntity
  8
1
  6
CONTINUOUS
 62
    20
100
AcDbLine
 10
-11.25
 20
120.5
 30
0.0
 11
-11.25
 21
-85.5
 31
0.0
  0
MTEXT
  5
1BA
100
AcDbEntity
  8
1
  6
CONTINUOUS
 62
    50
100
AcDbMText
 10
-8.875
 20
43.1875
 30
0.0
 40
1.25
 41
0.0
 71
     1
 72
     1
  1
\T0.818;\W0.983;\A1;MADE IN JAPAN
  7
MX_NOTE_STANDARD
 11
0.0
 21
-1.0
 31
0.0
  0
ARC
  5
1BB
100
AcDbEntity
  8
1
  6
CONTINUOUS
 62
    50
100
AcDbCircle
 10
-1.944184
 20
28.75
 30
0.0
 40
0.25
100
AcDbArc
 50
90.0
 51
145.0
  0
ARC
  5
1BC
100
AcDbEntity
  8
1
  6
CONTINUOUS
 62
    50
100
AcDbCircle
 10
1.744184
 20
28.75
 30
0.0
 40
0.25
100
AcDbArc
 50
35.0
 51
90.0
  0
LINE
  5
1BD
100
AcDbEntity
  8
1
  6
CONTINUOUS
 62
    50
100
AcDbLine
 10
-2.41418
 20
28.514638
 30
0.0
 11
-2.148972
 21
28.893394
 31
0.0
  0
LINE
  5
1BE
100
AcDbEntity
  8
1
  6
CONTINUOUS
 62
    50
100
AcDbLine
 10
2.21418
 20
28.514638
 30
0.0
 11
1.948972
 21
28.893394
 31
0.0
  0
LINE
  5
1BF
100
AcDbEntity
  8
1
  6
CONTINUOUS
 62
    50
100
AcDbLine
 10
-0.975
 20
29.0
 30
0.0
 11
-1.944184
 21
29.0
 31
0.0
  0
LINE
  5
1C0
100
AcDbEntity
  8
1
  6
CONTINUOUS
 62
    50
100
AcDbLine
 10
1.744184
 20
29.0
 30
0.0
 11
0.775
 21
29.0
 31
0.0
  0
ARC
  5
1C1
100
AcDbEntity
  8
1
  6
CONTINUOUS
 62
    50
100
AcDbCircle
 10
-1.944184
 20
37.75
 30
0.0
 40
0.25
100
AcDbArc
 50
90.0
 51
145.0
  0
ARC
  5
1C2
100
AcDbEntity
  8
1
  6
CONTINUOUS
 62
    50
100
AcDbCircle
 10
1.744184
 20
37.75
 30
0.0
 40
0.25
100
AcDbArc
 50
35.0
 51
90.0
  0
LINE
  5
1C3
100
AcDbEntity
  8
1
  6
CONTINUOUS
 62
    50
100
AcDbLine
 10
-2.41418
 20
37.514638
 30
0.0
 11
-2.148972
 21
37.893394
 31
0.0
  0
LINE
  5
1C4
100
AcDbEntity
  8
1
  6
CONTINUOUS
 62
    50
100
AcDbLine
 10
2.21418
 20
37.514638
 30
0.0
 11
1.948972
 21
37.893394
 31
0.0
  0
LINE
  5
1C5
100
AcDbEntity
  8
1
  6
CONTINUOUS
 62
    50
100
AcDbLine
 10
-0.975
 20
38.0
 30
0.0
 11
-1.944184
 21
38.0
 31
0.0
  0
LINE
  5
1C6
100
AcDbEntity
  8
1
  6
CONTINUOUS
 62
    50
100
AcDbLine
 10
1.744184
 20
38.0
 30
0.0
 11
0.775
 21
38.0
 31
0.0
  0
ARC
  5
1C7
100
AcDbEntity
  8
1
  6
CONTINUOUS
 62
    50
100
AcDbCircle
 10
-1.944184
 20
46.75
 30
0.0
 40
0.25
100
AcDbArc
 50
90.0
 51
145.0
  0
ARC
  5
1C8
100
AcDbEntity
  8
1
  6
CONTINUOUS
 62
    50
100
AcDbCircle
 10
1.744184
 20
46.75
 30
0.0
 40
0.25
100
AcDbArc
 50
35.0
 51
90.0
  0
LINE
  5
1C9
100
AcDbEntity
  8
1
  6
CONTINUOUS
 62
    50
100
AcDbLine
 10
-2.41418
 20
46.514638
 30
0.0
 11
-2.148972
 21
46.893394
 31
0.0
  0
LINE
  5
1CA
100
AcDbEntity
  8
1
  6
CONTINUOUS
 62
    50
100
AcDbLine
 10
2.21418
 20
46.514638
 30
0.0
 11
1.948972
 21
46.893394
 31
0.0
  0
LINE
  5
1CB
100
AcDbEntity
  8
1
  6
CONTINUOUS
 62
    50
100
AcDbLine
 10
-0.975
 20
47.0
 30
0.0
 11
-1.944184
 21
47.0
 31
0.0
  0
LINE
  5
1CC
100
AcDbEntity
  8
1
  6
CONTINUOUS
 62
    50
100
AcDbLine
 10
1.744184
 20
47.0
 30
0.0
 11
0.775
 21
47.0
 31
0.0
  0
ARC
  5
1CD
100
AcDbEntity
  8
1
  6
CONTINUOUS
 62
    50
100
AcDbCircle
 10
-1.944184
 20
55.75
 30
0.0
 40
0.25
100
AcDbArc
 50
90.0
 51
145.0
  0
ARC
  5
1CE
100
AcDbEntity
  8
1
  6
CONTINUOUS
 62
    50
100
AcDbCircle
 10
1.744184
 20
55.75
 30
0.0
 40
0.25
100
AcDbArc
 50
35.0
 51
90.0
  0
LINE
  5
1CF
100
AcDbEntity
  8
1
  6
CONTINUOUS
 62
    50
100
AcDbLine
 10
-2.41418
 20
55.514638
 30
0.0
 11
-2.148972
 21
55.893394
 31
0.0
  0
LINE
  5
1D0
100
AcDbEntity
  8
1
  6
CONTINUOUS
 62
    50
100
AcDbLine
 10
2.21418
 20
55.514638
 30
0.0
 11
1.948972
 21
55.893394
 31
0.0
  0
LINE
  5
1D1
100
AcDbEntity
  8
1
  6
CONTINUOUS
 62
    50
100
AcDbLine
 10
-0.975
 20
56.0
 30
0.0
 11
-1.944184
 21
56.0
 31
0.0
  0
LINE
  5
1D2
100
AcDbEntity
  8
1
  6
CONTINUOUS
 62
    50
100
AcDbLine
 10
1.744184
 20
56.0
 30
0.0
 11
0.775
 21
56.0
 31
0.0
  0
ARC
  5
1D3
100
AcDbEntity
  8
1
  6
CONTINUOUS
 62
    50
100
AcDbCircle
 10
-1.944184
 20
64.75
 30
0.0
 40
0.25
100
AcDbArc
 50
90.0
 51
145.0
  0
ARC
  5
1D4
100
AcDbEntity
  8
1
  6
CONTINUOUS
 62
    50
100
AcDbCircle
 10
1.744184
 20
64.75
 30
0.0
 40
0.25
100
AcDbArc
 50
35.0
 51
90.0
  0
LINE
  5
1D5
100
AcDbEntity
  8
1
  6
CONTINUOUS
 62
    50
100
AcDbLine
 10
-2.41418
 20
64.514638
 30
0.0
 11
-2.148972
 21
64.893394
 31
0.0
  0
LINE
  5
1D6
100
AcDbEntity
  8
1
  6
CONTINUOUS
 62
    50
100
AcDbLine
 10
2.21418
 20
64.514638
 30
0.0
 11
1.948972
 21
64.893394
 31
0.0
  0
LINE
  5
1D7
100
AcDbEntity
  8
1
  6
CONTINUOUS
 62
    50
100
AcDbLine
 10
-0.975
 20
65.0
 30
0.0
 11
-1.944184
 21
65.0
 31
0.0
  0
LINE
  5
1D8
100
AcDbEntity
  8
1
  6
CONTINUOUS
 62
    50
100
AcDbLine
 10
1.744184
 20
65.0
 30
0.0
 11
0.775
 21
65.0
 31
0.0
  0
ARC
  5
1D9
100
AcDbEntity
  8
1
  6
CONTINUOUS
 62
    50
100
AcDbCircle
 10
-1.944184
 20
73.75
 30
0.0
 40
0.25
100
AcDbArc
 50
90.0
 51
145.0
  0
ARC
  5
1DA
100
AcDbEntity
  8
1
  6
CONTINUOUS
 62
    50
100
AcDbCircle
 10
1.744184
 20
73.75
 30
0.0
 40
0.25
100
AcDbArc
 50
35.0
 51
90.0
  0
LINE
  5
1DB
100
AcDbEntity
  8
1
  6
CONTINUOUS
 62
    50
100
AcDbLine
 10
-2.41418
 20
73.514638
 30
0.0
 11
-2.148972
 21
73.893394
 31
0.0
  0
LINE
  5
1DC
100
AcDbEntity
  8
1
  6
CONTINUOUS
 62
    50
100
AcDbLine
 10
2.21418
 20
73.514638
 30
0.0
 11
1.948972
 21
73.893394
 31
0.0
  0
LINE
  5
1DD
100
AcDbEntity
  8
1
  6
CONTINUOUS
 62
    50
100
AcDbLine
 10
-0.975
 20
74.0
 30
0.0
 11
-1.944184
 21
74.0
 31
0.0
  0
LINE
  5
1DE
100
AcDbEntity
  8
1
  6
CONTINUOUS
 62
    50
100
AcDbLine
 10
1.744184
 20
74.0
 30
0.0
 11
0.775
 21
74.0
 31
0.0
  0
ARC
  5
1DF
100
AcDbEntity
  8
1
  6
CONTINUOUS
 62
    50
100
AcDbCircle
 10
-1.944184
 20
82.75
 30
0.0
 40
0.25
100
AcDbArc
 50
90.0
 51
145.0
  0
ARC
  5
1E0
100
AcDbEntity
  8
1
  6
CONTINUOUS
 62
    50
100
AcDbCircle
 10
1.744184
 20
82.75
 30
0.0
 40
0.25
100
AcDbArc
 50
35.0
 51
90.0
  0
LINE
  5
1E1
100
AcDbEntity
  8
1
  6
CONTINUOUS
 62
    50
100
AcDbLine
 10
-2.41418
 20
82.514638
 30
0.0
 11
-2.148972
 21
82.893394
 31
0.0
  0
LINE
  5
1E2
100
AcDbEntity
  8
1
  6
CONTINUOUS
 62
    50
100
AcDbLine
 10
2.21418
 20
82.514638
 30
0.0
 11
1.948972
 21
82.893394
 31
0.0
  0
LINE
  5
1E3
100
AcDbEntity
  8
1
  6
CONTINUOUS
 62
    50
100
AcDbLine
 10
-0.975
 20
83.0
 30
0.0
 11
-1.944184
 21
83.0
 31
0.0
  0
LINE
  5
1E4
100
AcDbEntity
  8
1
  6
CONTINUOUS
 62
    50
100
AcDbLine
 10
1.744184
 20
83.0
 30
0.0
 11
0.775
 21
83.0
 31
0.0
  0
ARC
  5
1E5
100
AcDbEntity
  8
1
  6
CONTINUOUS
 62
    50
100
AcDbCircle
 10
-1.944184
 20
91.75
 30
0.0
 40
0.25
100
AcDbArc
 50
90.0
 51
145.0
  0
ARC
  5
1E6
100
AcDbEntity
  8
1
  6
CONTINUOUS
 62
    50
100
AcDbCircle
 10
1.744184
 20
91.75
 30
0.0
 40
0.25
100
AcDbArc
 50
35.0
 51
90.0
  0
LINE
  5
1E7
100
AcDbEntity
  8
1
  6
CONTINUOUS
 62
    50
100
AcDbLine
 10
-2.41418
 20
91.514638
 30
0.0
 11
-2.148972
 21
91.893394
 31
0.0
  0
LINE
  5
1E8
100
AcDbEntity
  8
1
  6
CONTINUOUS
 62
    50
100
AcDbLine
 10
2.21418
 20
91.514638
 30
0.0
 11
1.948972
 21
91.893394
 31
0.0
  0
LINE
  5
1E9
100
AcDbEntity
  8
1
  6
CONTINUOUS
 62
    50
100
AcDbLine
 10
-0.975
 20
92.0
 30
0.0
 11
-1.944184
 21
92.0
 31
0.0
  0
LINE
  5
1EA
100
AcDbEntity
  8
1
  6
CONTINUOUS
 62
    50
100
AcDbLine
 10
1.744184
 20
92.0
 30
0.0
 11
0.775
 21
92.0
 31
0.0
  0
MTEXT
  5
1EB
100
AcDbEntity
  8
1
  6
CONTINUOUS
 62
     3
100
AcDbMText
 10
-0.6
 20
-72.9675
 30
0.0
 40
1.15
 41
0.0
 71
     4
 72
     1
  1
\T0.778;\W0.934;\A1;SPOT
  7
MX_NOTE_STANDARD
 11
0.0
 21
-1.0
 31
0.0
  0
MTEXT
  5
1EC
100
AcDbEntity
  8
1
  6
CONTINUOUS
 62
     3
100
AcDbMText
 10
-0.6
 20
-63.9675
 30
0.0
 40
1.15
 41
0.0
 71
     4
 72
     1
  1
\T0.813;\W0.976;\A1;MAIN
  7
MX_NOTE_STANDARD
 11
0.0
 21
-1.0
 31
0.0
  0
MTEXT
  5
1ED
100
AcDbEntity
  8
1
  6
CONTINUOUS
 62
     3
100
AcDbMText
 10
-0.6
 20
-55.4275
 30
0.0
 40
1.15
 41
0.0
 71
     4
 72
     1
  1
\T0.778;\W0.934;\A1;OUT
  7
MX_NOTE_STANDARD
 11
0.0
 21
-1.0
 31
0.0
  0
MTEXT
  5
1EE
100
AcDbEntity
  8
1
  6
CONTINUOUS
 62
     3
100
AcDbMText
 10
-0.6
 20
-47.0485
 30
0.0
 40
1.15
 41
0.0
 71
     4
 72
     1
  1
\T0.853;\W1.024;\A1;IN
  7
MX_NOTE_STANDARD
 11
0.0
 21
-1.0
 31
0.0
  0
ARC
  5
1EF
100
AcDbEntity
  8
1
  6
CONTINUOUS
 62
    50
100
AcDbCircle
 10
0.65
 20
-68.405816
 30
0.0
 40
0.25
100
AcDbArc
 50
125.0
 51
180.0
  0
LINE
  5
1F0
100
AcDbEntity
  8
1
  6
CONTINUOUS
 62
    50
100
AcDbLine
 10
0.4
 20
-68.405816
 30
0.0
 11
0.4
 21
-68.75
 31
0.0
  0
LINE
  5
1F1
100
AcDbEntity
  8
1
  6
CONTINUOUS
 62
    50
100
AcDbLine
 10
0.4
 20
-71.75
 30
0.0
 11
0.4
 21
-72.094184
 31
0.0
  0
ARC
  5
1F2
100
AcDbEntity
  8
1
  6
CONTINUOUS
 62
    50
100
AcDbCircle
 10
0.65
 20
-72.094184
 30
0.0
 40
0.25
100
AcDbArc
 50
180.0
 51
235.0
  0
LINE
  5
1F3
100
AcDbEntity
  8
1
  6
CONTINUOUS
 62
    50
100
AcDbLine
 10
1.007918
 20
-72.649994
 30
0.0
 11
0.506606
 21
-72.298972
 31
0.0
  0
MTEXT
  5
1F4
100
AcDbEntity
  8
1
  6
CONTINUOUS
 62
     3
100
AcDbMText
 10
1.18125
 20
-70.25
 30
0.0
 40
1.25
 41
0.0
 71
     5
 72
     1
  1
\T0.778;\W0.934;\A1;MON
  7
MX_NOTE_STANDARD
 11
0.0
 21
-1.0
 31
0.0
  0
MTEXT
  5
1F5
100
AcDbEntity
  8
1
  6
CONTINUOUS
 62
     3
100
AcDbMText
 10
-0.38125
 20
-70.25
 30
0.0
 40
1.25
 41
0.0
 71
     5
 72
     1
  1
\T0.778;\W0.934;\A1;OUT
  7
MX_NOTE_STANDARD
 11
0.0
 21
-1.0
 31
0.0
  0
LINE
  5
1F6
100
AcDbEntity
  8
1
  6
CONTINUOUS
 62
    50
100
AcDbLine
 10
1.007918
 20
-67.850006
 30
0.0
 11
0.506606
 21
-68.201028
 31
0.0
  0
LINE
  5
1F7
100
AcDbEntity
  8
1
  6
CONTINUOUS
 62
    50
100
AcDbLine
 10
1.007918
 20
-54.649994
 30
0.0
 11
0.506606
 21
-54.298972
 31
0.0
  0
ARC
  5
1F8
100
AcDbEntity
  8
1
  6
CONTINUOUS
 62
    50
100
AcDbCircle
 10
0.65
 20
-54.094184
 30
0.0
 40
0.25
100
AcDbArc
 50
180.0
 51
235.0
  0
LINE
  5
1F9
100
AcDbEntity
  8
1
  6
CONTINUOUS
 62
    50
100
AcDbLine
 10
0.4
 20
-53.75
 30
0.0
 11
0.4
 21
-54.094184
 31
0.0
  0
MTEXT
  5
1FA
100
AcDbEntity
  8
1
  6
CONTINUOUS
 62
     3
100
AcDbMText
 10
1.025
 20
-50.8125
 30
0.0
 40
1.25
 41
0.0
 71
     1
 72
     1
  1
\T0.750;\W0.873;\A1;VCR
  7
MX_NOTE_STANDARD
 11
0.0
 21
-1.0
 31
0.0
  0
LINE
  5
1FB
100
AcDbEntity
  8
1
  6
CONTINUOUS
 62
    50
100
AcDbLine
 10
0.4
 20
-50.405816
 30
0.0
 11
0.4
 21
-50.75
 31
0.0
  0
ARC
  5
1FC
100
AcDbEntity
  8
1
  6
CONTINUOUS
 62
    50
100
AcDbCircle
 10
0.65
 20
-50.405816
 30
0.0
 40
0.25
100
AcDbArc
 50
125.0
 51
180.0
  0
LINE
  5
1FD
100
AcDbEntity
  8
1
  6
CONTINUOUS
 62
    50
100
AcDbLine
 10
1.007918
 20
-49.850006
 30
0.0
 11
0.506606
 21
-50.201028
 31
0.0
  0
MTEXT
  5
1FE
100
AcDbEntity
  8
1
  6
CONTINUOUS
 62
    50
100
AcDbMText
 10
-8.0
 20
-50.8125
 30
0.0
 40
1.15
 41
0.0
 71
     1
 72
     1
  1
\T0.778;\W0.934;\A1;REMOTE/ALARM
  7
MX_NOTE_STANDARD
 11
0.0
 21
-1.0
 31
0.0
  0
LINE
  5
1FF
100
AcDbEntity
  8
1
  6
CONTINUOUS
 62
    50
100
AcDbLine
 10
1.744184
 20
101.0
 30
0.0
 11
0.775
 21
101.0
 31
0.0
  0
LINE
  5
200
100
AcDbEntity
  8
1
  6
CONTINUOUS
 62
    50
100
AcDbLine
 10
-0.975
 20
101.0
 30
0.0
 11
-1.944184
 21
101.0
 31
0.0
  0
LINE
  5
201
100
AcDbEntity
  8
1
  6
CONTINUOUS
 62
    50
100
AcDbLine
 10
2.21418
 20
100.514638
 30
0.0
 11
1.948972
 21
100.893394
 31
0.0
  0
LINE
  5
202
100
AcDbEntity
  8
1
  6
CONTINUOUS
 62
    50
100
AcDbLine
 10
-2.41418
 20
100.514638
 30
0.0
 11
-2.148972
 21
100.893394
 31
0.0
  0
ARC
  5
203
100
AcDbEntity
  8
1
  6
CONTINUOUS
 62
    50
100
AcDbCircle
 10
1.744184
 20
100.75
 30
0.0
 40
0.25
100
AcDbArc
 50
35.0
 51
90.0
  0
ARC
  5
204
100
AcDbEntity
  8
1
  6
CONTINUOUS
 62
    50
100
AcDbCircle
 10
-1.944184
 20
100.75
 30
0.0
 40
0.25
100
AcDbArc
 50
90.0
 51
145.0
  0
MTEXT
  5
205
100
AcDbEntity
  8
1
  6
CONTINUOUS
 62
     3
100
AcDbMText
 10
0.525
 20
29.46875
 30
0.0
 40
1.25
 41
0.0
 71
     1
 72
     1
  1
\T0.851;\A1;9
  7
MX_NOTE_STANDARD
 11
0.0
 21
-1.0
 31
0.0
  0
MTEXT
  5
206
100
AcDbEntity
  8
1
  6
CONTINUOUS
 62
     3
100
AcDbMText
 10
0.525
 20
38.46875
 30
0.0
 40
1.25
 41
0.0
 71
     1
 72
     1
  1
\T0.851;\A1;8
  7
MX_NOTE_STANDARD
 11
0.0
 21
-1.0
 31
0.0
  0
MTEXT
  5
207
100
AcDbEntity
  8
1
  6
CONTINUOUS
 62
     3
100
AcDbMText
 10
0.525
 20
47.46875
 30
0.0
 40
1.25
 41
0.0
 71
     1
 72
     1
  1
\T0.851;\A1;7
  7
MX_NOTE_STANDARD
 11
0.0
 21
-1.0
 31
0.0
  0
MTEXT
  5
208
100
AcDbEntity
  8
1
  6
CONTINUOUS
 62
     3
100
AcDbMText
 10
0.525
 20
56.46875
 30
0.0
 40
1.25
 41
0.0
 71
     1
 72
     1
  1
\T0.851;\A1;6
  7
MX_NOTE_STANDARD
 11
0.0
 21
-1.0
 31
0.0
  0
MTEXT
  5
209
100
AcDbEntity
  8
1
  6
CONTINUOUS
 62
     3
100
AcDbMText
 10
0.525
 20
65.46875
 30
0.0
 40
1.25
 41
0.0
 71
     1
 72
     1
  1
\T0.851;\A1;5
  7
MX_NOTE_STANDARD
 11
0.0
 21
-1.0
 31
0.0
  0
MTEXT
  5
20A
100
AcDbEntity
  8
1
  6
CONTINUOUS
 62
     3
100
AcDbMText
 10
0.525
 20
74.46875
 30
0.0
 40
1.25
 41
0.0
 71
     1
 72
     1
  1
\T0.851;\A1;4
  7
MX_NOTE_STANDARD
 11
0.0
 21
-1.0
 31
0.0
  0
MTEXT
  5
20B
100
AcDbEntity
  8
1
  6
CONTINUOUS
 62
     3
100
AcDbMText
 10
0.525
 20
83.46875
 30
0.0
 40
1.25
 41
0.0
 71
     1
 72
     1
  1
\T0.851;\A1;3
  7
MX_NOTE_STANDARD
 11
0.0
 21
-1.0
 31
0.0
  0
MTEXT
  5
20C
100
AcDbEntity
  8
1
  6
CONTINUOUS
 62
     3
100
AcDbMText
 10
0.525
 20
92.46875
 30
0.0
 40
1.25
 41
0.0
 71
     1
 72
     1
  1
\T0.851;\A1;2
  7
MX_NOTE_STANDARD
 11
0.0
 21
-1.0
 31
0.0
  0
MTEXT
  5
20D
100
AcDbEntity
  8
1
  6
CONTINUOUS
 62
     3
100
AcDbMText
 10
0.525
 20
101.28125
 30
0.0
 40
1.25
 41
0.0
 71
     1
 72
     1
  1
\T1.043;\W1.226;\A1;1
  7
MX_NOTE_STANDARD
 11
0.0
 21
-1.0
 31
0.0
  0
LINE
  5
20E
100
AcDbEntity
  8
1
  6
CONTINUOUS
 62
    50
100
AcDbLine
 10
-9.5
 20
101.0
 30
0.0
 11
-9.5
 21
104.1
 31
0.0
  0
MTEXT
  5
20F
100
AcDbEntity
  8
1
  6
CONTINUOUS
 62
    50
100
AcDbMText
 10
-8.875
 20
83.5
 30
0.0
 40
1.25
 41
0.0
 71
     2
 72
     1
  1
\T0.822;\W0.987;\A1;AC100-120V～50/60Hz[T1A FUSE INSIDE]
  7
MX_NOTE_STANDARD
 11
0.0
 21
-1.0
 31
0.0
  0
LINE
  5
210
100
AcDbEntity
  8
1
  6
CONTINUOUS
 62
   160
100
AcDbLine
 10
6.813
 20
-70.648
 30
0.0
 11
6.548
 21
-70.913
 31
0.0
  0
LINE
  5
211
100
AcDbEntity
  8
1
  6
CONTINUOUS
 62
   160
100
AcDbLine
 10
5.752
 20
-69.587
 30
0.0
 11
5.487
 21
-69.852
 31
0.0
  0
LINE
  5
212
100
AcDbEntity
  8
1
  6
CONTINUOUS
 62
   160
100
AcDbLine
 10
6.548
 20
-69.587
 30
0.0
 11
6.813
 21
-69.852
 31
0.0
  0
LINE
  5
213
100
AcDbEntity
  8
1
  6
CONTINUOUS
 62
   160
100
AcDbLine
 10
5.487
 20
-70.648
 30
0.0
 11
5.752
 21
-70.913
 31
0.0
  0
LINE
  5
214
100
AcDbEntity
  8
1
  6
CONTINUOUS
 62
   160
100
AcDbLine
 10
5.487
 20
-69.852
 30
0.0
 11
5.673
 21
-70.038
 31
0.0
  0
LINE
  5
215
100
AcDbEntity
  8
1
  6
CONTINUOUS
 62
   160
100
AcDbLine
 10
6.362
 20
-70.728
 30
0.0
 11
6.548
 21
-70.913
 31
0.0
  0
LINE
  5
216
100
AcDbEntity
  8
1
  6
CONTINUOUS
 62
   160
100
AcDbLine
 10
5.673
 20
-70.462
 30
0.0
 11
5.487
 21
-70.648
 31
0.0
  0
LINE
  5
217
100
AcDbEntity
  8
1
  6
CONTINUOUS
 62
   160
100
AcDbLine
 10
6.548
 20
-69.587
 30
0.0
 11
6.362
 21
-69.773
 31
0.0
  0
LINE
  5
218
100
AcDbEntity
  8
1
  6
CONTINUOUS
 62
   160
100
AcDbLine
 10
5.752
 20
-69.587
 30
0.0
 11
5.938
 21
-69.773
 31
0.0
  0
LINE
  5
219
100
AcDbEntity
  8
1
  6
CONTINUOUS
 62
   160
100
AcDbLine
 10
6.628
 20
-70.462
 30
0.0
 11
6.813
 21
-70.648
 31
0.0
  0
LINE
  5
21A
100
AcDbEntity
  8
1
  6
CONTINUOUS
 62
   160
100
AcDbLine
 10
5.938
 20
-70.728
 30
0.0
 11
5.752
 21
-70.913
 31
0.0
  0
LINE
  5
21B
100
AcDbEntity
  8
1
  6
CONTINUOUS
 62
   160
100
AcDbLine
 10
6.813
 20
-69.852
 30
0.0
 11
6.628
 21
-70.038
 31
0.0
  0
CIRCLE
  5
21C
100
AcDbEntity
  8
1
  6
CONTINUOUS
 62
   160
100
AcDbCircle
 10
5.461
 20
-70.25
 30
0.0
 40
0.15
  0
ARC
  5
21D
100
AcDbEntity
  8
1
  6
CONTINUOUS
 62
   160
100
AcDbCircle
 10
6.15
 20
-70.939
 30
0.0
 40
0.3
100
AcDbArc
 50
44.86518
 51
135.0
  0
ARC
  5
21E
100
AcDbEntity
  8
1
  6
CONTINUOUS
 62
   160
100
AcDbCircle
 10
5.461
 20
-70.25
 30
0.0
 40
0.3
100
AcDbArc
 50
314.865186
 51
45.0
  0
ARC
  5
21F
100
AcDbEntity
  8
1
  6
CONTINUOUS
 62
   160
100
AcDbCircle
 10
6.15
 20
-69.561
 30
0.0
 40
0.3
100
AcDbArc
 50
225.0
 51
315.134813
  0
ARC
  5
220
100
AcDbEntity
  8
1
  6
CONTINUOUS
 62
   160
100
AcDbCircle
 10
6.839
 20
-70.25
 30
0.0
 40
0.3
100
AcDbArc
 50
135.0
 51
225.13481
  0
CIRCLE
  5
221
100
AcDbEntity
  8
1
  6
CONTINUOUS
 62
   160
100
AcDbCircle
 10
6.15
 20
-70.25
 30
0.0
 40
1.32
  0
LINE
  5
222
100
AcDbEntity
  8
1
  6
CONTINUOUS
 62
   191
100
AcDbLine
 10
3.155
 20
-77.55
 30
0.0
 11
4.145
 21
-77.55
 31
0.0
  0
LINE
  5
223
100
AcDbEntity
  8
1
  6
CONTINUOUS
 62
   191
100
AcDbLine
 10
3.156
 20
-72.0
 30
0.0
 11
3.156
 21
-72.452
 31
0.0
  0
LINE
  5
224
100
AcDbEntity
  8
1
  6
CONTINUOUS
 62
   191
100
AcDbLine
 10
3.156
 20
-72.0
 30
0.0
 11
4.145
 21
-72.0
 31
0.0
  0
LINE
  5
225
100
AcDbEntity
  8
1
  6
CONTINUOUS
 62
   191
100
AcDbLine
 10
4.145
 20
-72.0
 30
0.0
 11
4.145
 21
-72.452
 31
0.0
  0
CIRCLE
  5
226
100
AcDbEntity
  8
1
  6
CONTINUOUS
 62
   191
100
AcDbCircle
 10
3.65
 20
-74.775
 30
0.0
 40
1.25
  0
LINE
  5
227
100
AcDbEntity
  8
1
  6
CONTINUOUS
 62
   191
100
AcDbLine
 10
4.145
 20
-77.098
 30
0.0
 11
4.145
 21
-77.55
 31
0.0
  0
LINE
  5
228
100
AcDbEntity
  8
1
  6
CONTINUOUS
 62
   191
100
AcDbLine
 10
3.155
 20
-77.098
 30
0.0
 11
3.155
 21
-77.55
 31
0.0
  0
CIRCLE
  5
229
100
AcDbEntity
  8
1
  6
CONTINUOUS
 62
   191
100
AcDbCircle
 10
3.65
 20
-74.775
 30
0.0
 40
2.375
  0
CIRCLE
  5
22A
100
AcDbEntity
  8
1
  6
CONTINUOUS
 62
   191
100
AcDbCircle
 10
3.65
 20
-74.775
 30
0.0
 40
2.275
  0
CIRCLE
  5
22B
100
AcDbEntity
  8
1
  6
CONTINUOUS
 62
   191
100
AcDbCircle
 10
3.65
 20
-74.775
 30
0.0
 40
3.25
  0
LINE
  5
22C
100
AcDbEntity
  8
1
  6
CONTINUOUS
 62
   191
100
AcDbLine
 10
3.155
 20
-68.55
 30
0.0
 11
4.145
 21
-68.55
 31
0.0
  0
LINE
  5
22D
100
AcDbEntity
  8
1
  6
CONTINUOUS
 62
   191
100
AcDbLine
 10
3.156
 20
-63.0
 30
0.0
 11
3.156
 21
-63.452
 31
0.0
  0
LINE
  5
22E
100
AcDbEntity
  8
1
  6
CONTINUOUS
 62
   191
100
AcDbLine
 10
3.156
 20
-63.0
 30
0.0
 11
4.145
 21
-63.0
 31
0.0
  0
LINE
  5
22F
100
AcDbEntity
  8
1
  6
CONTINUOUS
 62
   191
100
AcDbLine
 10
4.145
 20
-63.0
 30
0.0
 11
4.145
 21
-63.452
 31
0.0
  0
CIRCLE
  5
230
100
AcDbEntity
  8
1
  6
CONTINUOUS
 62
   191
100
AcDbCircle
 10
3.65
 20
-65.775
 30
0.0
 40
1.25
  0
LINE
  5
231
100
AcDbEntity
  8
1
  6
CONTINUOUS
 62
   191
100
AcDbLine
 10
4.145
 20
-68.098
 30
0.0
 11
4.145
 21
-68.55
 31
0.0
  0
LINE
  5
232
100
AcDbEntity
  8
1
  6
CONTINUOUS
 62
   191
100
AcDbLine
 10
3.155
 20
-68.098
 30
0.0
 11
3.155
 21
-68.55
 31
0.0
  0
CIRCLE
  5
233
100
AcDbEntity
  8
1
  6
CONTINUOUS
 62
   191
100
AcDbCircle
 10
3.65
 20
-65.775
 30
0.0
 40
2.375
  0
CIRCLE
  5
234
100
AcDbEntity
  8
1
  6
CONTINUOUS
 62
   191
100
AcDbCircle
 10
3.65
 20
-65.775
 30
0.0
 40
2.275
  0
CIRCLE
  5
235
100
AcDbEntity
  8
1
  6
CONTINUOUS
 62
   191
100
AcDbCircle
 10
3.65
 20
-65.775
 30
0.0
 40
3.25
  0
LINE
  5
236
100
AcDbEntity
  8
1
  6
CONTINUOUS
 62
   191
100
AcDbLine
 10
3.155
 20
-59.55
 30
0.0
 11
4.145
 21
-59.55
 31
0.0
  0
LINE
  5
237
100
AcDbEntity
  8
1
  6
CONTINUOUS
 62
   191
100
AcDbLine
 10
3.156
 20
-54.0
 30
0.0
 11
3.156
 21
-54.452
 31
0.0
  0
LINE
  5
238
100
AcDbEntity
  8
1
  6
CONTINUOUS
 62
   191
100
AcDbLine
 10
3.156
 20
-54.0
 30
0.0
 11
4.145
 21
-54.0
 31
0.0
  0
LINE
  5
239
100
AcDbEntity
  8
1
  6
CONTINUOUS
 62
   191
100
AcDbLine
 10
4.145
 20
-54.0
 30
0.0
 11
4.145
 21
-54.452
 31
0.0
  0
CIRCLE
  5
23A
100
AcDbEntity
  8
1
  6
CONTINUOUS
 62
   191
100
AcDbCircle
 10
3.65
 20
-56.775
 30
0.0
 40
1.25
  0
LINE
  5
23B
100
AcDbEntity
  8
1
  6
CONTINUOUS
 62
   191
100
AcDbLine
 10
4.145
 20
-59.098
 30
0.0
 11
4.145
 21
-59.55
 31
0.0
  0
LINE
  5
23C
100
AcDbEntity
  8
1
  6
CONTINUOUS
 62
   191
100
AcDbLine
 10
3.155
 20
-59.098
 30
0.0
 11
3.155
 21
-59.55
 31
0.0
  0
CIRCLE
  5
23D
100
AcDbEntity
  8
1
  6
CONTINUOUS
 62
   191
100
AcDbCircle
 10
3.65
 20
-56.775
 30
0.0
 40
2.375
  0
CIRCLE
  5
23E
100
AcDbEntity
  8
1
  6
CONTINUOUS
 62
   191
100
AcDbCircle
 10
3.65
 20
-56.775
 30
0.0
 40
2.275
  0
CIRCLE
  5
23F
100
AcDbEntity
  8
1
  6
CONTINUOUS
 62
   191
100
AcDbCircle
 10
3.65
 20
-56.775
 30
0.0
 40
3.25
  0
LINE
  5
240
100
AcDbEntity
  8
1
  6
CONTINUOUS
 62
   191
100
AcDbLine
 10
3.155
 20
-50.55
 30
0.0
 11
4.145
 21
-50.55
 31
0.0
  0
LINE
  5
241
100
AcDbEntity
  8
1
  6
CONTINUOUS
 62
   191
100
AcDbLine
 10
3.156
 20
-45.0
 30
0.0
 11
3.156
 21
-45.452
 31
0.0
  0
LINE
  5
242
100
AcDbEntity
  8
1
  6
CONTINUOUS
 62
   191
100
AcDbLine
 10
3.156
 20
-45.0
 30
0.0
 11
4.145
 21
-45.0
 31
0.0
  0
LINE
  5
243
100
AcDbEntity
  8
1
  6
CONTINUOUS
 62
   191
100
AcDbLine
 10
4.145
 20
-45.0
 30
0.0
 11
4.145
 21
-45.452
 31
0.0
  0
CIRCLE
  5
244
100
AcDbEntity
  8
1
  6
CONTINUOUS
 62
   191
100
AcDbCircle
 10
3.65
 20
-47.775
 30
0.0
 40
1.25
  0
LINE
  5
245
100
AcDbEntity
  8
1
  6
CONTINUOUS
 62
   191
100
AcDbLine
 10
4.145
 20
-50.098
 30
0.0
 11
4.145
 21
-50.55
 31
0.0
  0
LINE
  5
246
100
AcDbEntity
  8
1
  6
CONTINUOUS
 62
   191
100
AcDbLine
 10
3.155
 20
-50.098
 30
0.0
 11
3.155
 21
-50.55
 31
0.0
  0
CIRCLE
  5
247
100
AcDbEntity
  8
1
  6
CONTINUOUS
 62
   191
100
AcDbCircle
 10
3.65
 20
-47.775
 30
0.0
 40
2.375
  0
CIRCLE
  5
248
100
AcDbEntity
  8
1
  6
CONTINUOUS
 62
   191
100
AcDbCircle
 10
3.65
 20
-47.775
 30
0.0
 40
2.275
  0
CIRCLE
  5
249
100
AcDbEntity
  8
1
  6
CONTINUOUS
 62
   191
100
AcDbCircle
 10
3.65
 20
-47.775
 30
0.0
 40
3.25
  0
LINE
  5
24A
100
AcDbEntity
  8
1
  6
CONTINUOUS
 62
    80
100
AcDbLine
 10
-9.75
 20
119.9
 30
0.0
 11
6.25
 21
119.9
 31
0.0
  0
LINE
  5
24B
100
AcDbEntity
  8
1
  6
CONTINUOUS
 62
    80
100
AcDbLine
 10
-10.5
 20
119.15
 30
0.0
 11
-10.5
 21
104.85
 31
0.0
  0
LINE
  5
24C
100
AcDbEntity
  8
1
  6
CONTINUOUS
 62
    80
100
AcDbLine
 10
-9.75
 20
104.1
 30
0.0
 11
6.25
 21
104.1
 31
0.0
  0
LINE
  5
24D
100
AcDbEntity
  8
1
  6
CONTINUOUS
 62
    80
100
AcDbLine
 10
-8.65
 20
119.0
 30
0.0
 11
5.15
 21
119.0
 31
0.0
  0
LINE
  5
24E
100
AcDbEntity
  8
1
  6
CONTINUOUS
 62
    80
100
AcDbLine
 10
-8.65
 20
105.0
 30
0.0
 11
5.15
 21
105.0
 31
0.0
  0
ARC
  5
24F
100
AcDbEntity
  8
1
  6
CONTINUOUS
 62
    80
100
AcDbCircle
 10
4.15
 20
108.685
 30
0.0
 40
0.75
100
AcDbArc
 50
315.0
 51
360.0
  0
ARC
  5
250
100
AcDbEntity
  8
1
  6
CONTINUOUS
 62
    80
100
AcDbCircle
 10
4.15
 20
115.314
 30
0.0
 40
0.75
100
AcDbArc
 50
0.0
 51
45.0
  0
LINE
  5
251
100
AcDbEntity
  8
1
  6
CONTINUOUS
 62
    80
100
AcDbLine
 10
4.68
 20
108.155
 30
0.0
 11
2.62
 21
106.094
 31
0.0
  0
LINE
  5
252
100
AcDbEntity
  8
1
  6
CONTINUOUS
 62
    80
100
AcDbLine
 10
2.62
 20
117.905
 30
0.0
 11
4.68
 21
115.844
 31
0.0
  0
LINE
  5
253
100
AcDbEntity
  8
1
  6
CONTINUOUS
 62
    80
100
AcDbLine
 10
-2.6
 20
105.875
 30
0.0
 11
2.089
 21
105.875
 31
0.0
  0
LINE
  5
254
100
AcDbEntity
  8
1
  6
CONTINUOUS
 62
    80
100
AcDbLine
 10
-3.35
 20
117.375
 30
0.0
 11
-3.35
 21
106.625
 31
0.0
  0
LINE
  5
255
100
AcDbEntity
  8
1
  6
CONTINUOUS
 62
    80
100
AcDbLine
 10
-2.6
 20
118.125
 30
0.0
 11
2.089
 21
118.125
 31
0.0
  0
LINE
  5
256
100
AcDbEntity
  8
1
  6
CONTINUOUS
 62
    80
100
AcDbLine
 10
1.275
 20
111.5
 30
0.0
 11
3.275
 21
111.5
 31
0.0
  0
LINE
  5
257
100
AcDbEntity
  8
1
  6
CONTINUOUS
 62
    80
100
AcDbLine
 10
1.275
 20
112.5
 30
0.0
 11
1.275
 21
111.5
 31
0.0
  0
LINE
  5
258
100
AcDbEntity
  8
1
  6
CONTINUOUS
 62
    80
100
AcDbLine
 10
1.275
 20
112.5
 30
0.0
 11
3.275
 21
112.5
 31
0.0
  0
LINE
  5
259
100
AcDbEntity
  8
1
  6
CONTINUOUS
 62
    80
100
AcDbLine
 10
3.275
 20
112.5
 30
0.0
 11
3.275
 21
111.5
 31
0.0
  0
LINE
  5
25A
100
AcDbEntity
  8
1
  6
CONTINUOUS
 62
    80
100
AcDbLine
 10
-1.725
 20
115.0
 30
0.0
 11
0.275
 21
115.0
 31
0.0
  0
LINE
  5
25B
100
AcDbEntity
  8
1
  6
CONTINUOUS
 62
    80
100
AcDbLine
 10
-1.725
 20
116.0
 30
0.0
 11
-1.725
 21
115.0
 31
0.0
  0
LINE
  5
25C
100
AcDbEntity
  8
1
  6
CONTINUOUS
 62
    80
100
AcDbLine
 10
-1.725
 20
116.0
 30
0.0
 11
0.275
 21
116.0
 31
0.0
  0
LINE
  5
25D
100
AcDbEntity
  8
1
  6
CONTINUOUS
 62
    80
100
AcDbLine
 10
0.275
 20
116.0
 30
0.0
 11
0.275
 21
115.0
 31
0.0
  0
LINE
  5
25E
100
AcDbEntity
  8
1
  6
CONTINUOUS
 62
    80
100
AcDbLine
 10
-1.725
 20
108.0
 30
0.0
 11
0.275
 21
108.0
 31
0.0
  0
LINE
  5
25F
100
AcDbEntity
  8
1
  6
CONTINUOUS
 62
    80
100
AcDbLine
 10
-1.725
 20
109.0
 30
0.0
 11
-1.725
 21
108.0
 31
0.0
  0
LINE
  5
260
100
AcDbEntity
  8
1
  6
CONTINUOUS
 62
    80
100
AcDbLine
 10
-1.725
 20
109.0
 30
0.0
 11
0.275
 21
109.0
 31
0.0
  0
LINE
  5
261
100
AcDbEntity
  8
1
  6
CONTINUOUS
 62
    80
100
AcDbLine
 10
0.275
 20
109.0
 30
0.0
 11
0.275
 21
108.0
 31
0.0
  0
ARC
  5
262
100
AcDbEntity
  8
1
  6
CONTINUOUS
 62
    80
100
AcDbCircle
 10
-2.6
 20
106.625
 30
0.0
 40
0.75
100
AcDbArc
 50
180.0
 51
270.0
  0
ARC
  5
263
100
AcDbEntity
  8
1
  6
CONTINUOUS
 62
    80
100
AcDbCircle
 10
-2.6
 20
117.375
 30
0.0
 40
0.75
100
AcDbArc
 50
90.0
 51
180.0
  0
ARC
  5
264
100
AcDbEntity
  8
1
  6
CONTINUOUS
 62
    80
100
AcDbCircle
 10
2.089
 20
117.375
 30
0.0
 40
0.75
100
AcDbArc
 50
44.94599
 51
90.0
  0
ARC
  5
265
100
AcDbEntity
  8
1
  6
CONTINUOUS
 62
    80
100
AcDbCircle
 10
2.089
 20
106.625
 30
0.0
 40
0.75
100
AcDbArc
 50
270.0
 51
315.0
  0
ARC
  5
266
100
AcDbEntity
  8
1
  6
CONTINUOUS
 62
    80
100
AcDbCircle
 10
-9.75
 20
119.15
 30
0.0
 40
0.75
100
AcDbArc
 50
90.0
 51
180.0
  0
ARC
  5
267
100
AcDbEntity
  8
1
  6
CONTINUOUS
 62
    80
100
AcDbCircle
 10
-9.75
 20
104.85
 30
0.0
 40
0.75
100
AcDbArc
 50
180.0
 51
270.0
  0
LINE
  5
268
100
AcDbEntity
  8
1
  6
CONTINUOUS
 62
    80
100
AcDbLine
 10
-9.4
 20
118.25
 30
0.0
 11
-9.4
 21
105.75
 31
0.0
  0
ARC
  5
269
100
AcDbEntity
  8
1
  6
CONTINUOUS
 62
    80
100
AcDbCircle
 10
-8.65
 20
105.75
 30
0.0
 40
0.75
100
AcDbArc
 50
180.0
 51
270.0
  0
ARC
  5
26A
100
AcDbEntity
  8
1
  6
CONTINUOUS
 62
    80
100
AcDbCircle
 10
-8.65
 20
118.25
 30
0.0
 40
0.75
100
AcDbArc
 50
90.0
 51
180.0
  0
LINE
  5
26B
100
AcDbEntity
  8
1
  6
CONTINUOUS
 62
    80
100
AcDbLine
 10
-8.75
 20
105.95
 30
0.0
 11
-4.0
 21
105.95
 31
0.0
  0
LINE
  5
26C
100
AcDbEntity
  8
1
  6
CONTINUOUS
 62
    80
100
AcDbLine
 10
-8.75
 20
118.05
 30
0.0
 11
-4.0
 21
118.05
 31
0.0
  0
LINE
  5
26D
100
AcDbEntity
  8
1
  6
CONTINUOUS
 62
    80
100
AcDbLine
 10
-8.75
 20
118.05
 30
0.0
 11
-8.75
 21
105.95
 31
0.0
  0
LINE
  5
26E
100
AcDbEntity
  8
1
  6
CONTINUOUS
 62
    80
100
AcDbLine
 10
-4.0
 20
118.05
 30
0.0
 11
-4.0
 21
105.95
 31
0.0
  0
LINE
  5
26F
100
AcDbEntity
  8
1
  6
CONTINUOUS
 62
    80
100
AcDbLine
 10
4.9
 20
115.314
 30
0.0
 11
4.9
 21
108.685
 31
0.0
  0
LINE
  5
270
100
AcDbEntity
  8
1
  6
CONTINUOUS
 62
    80
100
AcDbLine
 10
7.0
 20
119.15
 30
0.0
 11
7.0
 21
104.85
 31
0.0
  0
ARC
  5
271
100
AcDbEntity
  8
1
  6
CONTINUOUS
 62
    80
100
AcDbCircle
 10
6.25
 20
104.85
 30
0.0
 40
0.75
100
AcDbArc
 50
270.0
 51
0.0
  0
ARC
  5
272
100
AcDbEntity
  8
1
  6
CONTINUOUS
 62
    80
100
AcDbCircle
 10
6.25
 20
119.15
 30
0.0
 40
0.75
100
AcDbArc
 50
0.0
 51
90.0
  0
LINE
  5
273
100
AcDbEntity
  8
1
  6
CONTINUOUS
 62
    80
100
AcDbLine
 10
5.9
 20
118.25
 30
0.0
 11
5.9
 21
105.75
 31
0.0
  0
ARC
  5
274
100
AcDbEntity
  8
1
  6
CONTINUOUS
 62
    80
100
AcDbCircle
 10
5.15
 20
105.75
 30
0.0
 40
0.75
100
AcDbArc
 50
270.0
 51
0.0
  0
ARC
  5
275
100
AcDbEntity
  8
1
  6
CONTINUOUS
 62
    80
100
AcDbCircle
 10
5.15
 20
118.25
 30
0.0
 40
0.75
100
AcDbArc
 50
0.0
 51
90.0
  0
LINE
  5
276
100
AcDbEntity
  8
1
  6
CONTINUOUS
 62
    80
100
AcDbLine
 10
-4.845
 20
22.975
 30
0.0
 11
-3.855
 21
22.975
 31
0.0
  0
LINE
  5
277
100
AcDbEntity
  8
1
  6
CONTINUOUS
 62
    80
100
AcDbLine
 10
-4.844
 20
28.525
 30
0.0
 11
-4.844
 21
28.073
 31
0.0
  0
LINE
  5
278
100
AcDbEntity
  8
1
  6
CONTINUOUS
 62
    80
100
AcDbLine
 10
-4.844
 20
28.525
 30
0.0
 11
-3.855
 21
28.525
 31
0.0
  0
LINE
  5
279
100
AcDbEntity
  8
1
  6
CONTINUOUS
 62
    80
100
AcDbLine
 10
-3.855
 20
28.525
 30
0.0
 11
-3.855
 21
28.073
 31
0.0
  0
CIRCLE
  5
27A
100
AcDbEntity
  8
1
  6
CONTINUOUS
 62
    80
100
AcDbCircle
 10
-4.35
 20
25.75
 30
0.0
 40
1.25
  0
LINE
  5
27B
100
AcDbEntity
  8
1
  6
CONTINUOUS
 62
    80
100
AcDbLine
 10
-3.855
 20
23.427
 30
0.0
 11
-3.855
 21
22.975
 31
0.0
  0
LINE
  5
27C
100
AcDbEntity
  8
1
  6
CONTINUOUS
 62
    80
100
AcDbLine
 10
-4.845
 20
23.427
 30
0.0
 11
-4.845
 21
22.975
 31
0.0
  0
CIRCLE
  5
27D
100
AcDbEntity
  8
1
  6
CONTINUOUS
 62
    80
100
AcDbCircle
 10
-4.35
 20
25.75
 30
0.0
 40
2.375
  0
CIRCLE
  5
27E
100
AcDbEntity
  8
1
  6
CONTINUOUS
 62
    80
100
AcDbCircle
 10
-4.35
 20
25.75
 30
0.0
 40
2.275
  0
CIRCLE
  5
27F
100
AcDbEntity
  8
1
  6
CONTINUOUS
 62
    80
100
AcDbCircle
 10
-4.35
 20
25.75
 30
0.0
 40
3.25
  0
LINE
  5
280
100
AcDbEntity
  8
1
  6
CONTINUOUS
 62
    80
100
AcDbLine
 10
3.655
 20
22.975
 30
0.0
 11
4.645
 21
22.975
 31
0.0
  0
LINE
  5
281
100
AcDbEntity
  8
1
  6
CONTINUOUS
 62
    80
100
AcDbLine
 10
3.656
 20
28.525
 30
0.0
 11
3.656
 21
28.073
 31
0.0
  0
LINE
  5
282
100
AcDbEntity
  8
1
  6
CONTINUOUS
 62
    80
100
AcDbLine
 10
3.656
 20
28.525
 30
0.0
 11
4.645
 21
28.525
 31
0.0
  0
LINE
  5
283
100
AcDbEntity
  8
1
  6
CONTINUOUS
 62
    80
100
AcDbLine
 10
4.645
 20
28.525
 30
0.0
 11
4.645
 21
28.073
 31
0.0
  0
CIRCLE
  5
284
100
AcDbEntity
  8
1
  6
CONTINUOUS
 62
    80
100
AcDbCircle
 10
4.15
 20
25.75
 30
0.0
 40
1.25
  0
LINE
  5
285
100
AcDbEntity
  8
1
  6
CONTINUOUS
 62
    80
100
AcDbLine
 10
4.645
 20
23.427
 30
0.0
 11
4.645
 21
22.975
 31
0.0
  0
LINE
  5
286
100
AcDbEntity
  8
1
  6
CONTINUOUS
 62
    80
100
AcDbLine
 10
3.655
 20
23.427
 30
0.0
 11
3.655
 21
22.975
 31
0.0
  0
CIRCLE
  5
287
100
AcDbEntity
  8
1
  6
CONTINUOUS
 62
    80
100
AcDbCircle
 10
4.15
 20
25.75
 30
0.0
 40
2.275
  0
CIRCLE
  5
288
100
AcDbEntity
  8
1
  6
CONTINUOUS
 62
    80
100
AcDbCircle
 10
4.15
 20
25.75
 30
0.0
 40
2.375
  0
CIRCLE
  5
289
100
AcDbEntity
  8
1
  6
CONTINUOUS
 62
    80
100
AcDbCircle
 10
4.15
 20
25.75
 30
0.0
 40
3.25
  0
LINE
  5
28A
100
AcDbEntity
  8
1
  6
CONTINUOUS
 62
    80
100
AcDbLine
 10
-4.845
 20
31.975
 30
0.0
 11
-3.855
 21
31.975
 31
0.0
  0
LINE
  5
28B
100
AcDbEntity
  8
1
  6
CONTINUOUS
 62
    80
100
AcDbLine
 10
-4.844
 20
37.525
 30
0.0
 11
-4.844
 21
37.073
 31
0.0
  0
LINE
  5
28C
100
AcDbEntity
  8
1
  6
CONTINUOUS
 62
    80
100
AcDbLine
 10
-4.844
 20
37.525
 30
0.0
 11
-3.855
 21
37.525
 31
0.0
  0
LINE
  5
28D
100
AcDbEntity
  8
1
  6
CONTINUOUS
 62
    80
100
AcDbLine
 10
-3.855
 20
37.525
 30
0.0
 11
-3.855
 21
37.073
 31
0.0
  0
CIRCLE
  5
28E
100
AcDbEntity
  8
1
  6
CONTINUOUS
 62
    80
100
AcDbCircle
 10
-4.35
 20
34.75
 30
0.0
 40
1.25
  0
LINE
  5
28F
100
AcDbEntity
  8
1
  6
CONTINUOUS
 62
    80
100
AcDbLine
 10
-3.855
 20
32.427
 30
0.0
 11
-3.855
 21
31.975
 31
0.0
  0
LINE
  5
290
100
AcDbEntity
  8
1
  6
CONTINUOUS
 62
    80
100
AcDbLine
 10
-4.845
 20
32.427
 30
0.0
 11
-4.845
 21
31.975
 31
0.0
  0
CIRCLE
  5
291
100
AcDbEntity
  8
1
  6
CONTINUOUS
 62
    80
100
AcDbCircle
 10
-4.35
 20
34.75
 30
0.0
 40
2.375
  0
CIRCLE
  5
292
100
AcDbEntity
  8
1
  6
CONTINUOUS
 62
    80
100
AcDbCircle
 10
-4.35
 20
34.75
 30
0.0
 40
2.275
  0
CIRCLE
  5
293
100
AcDbEntity
  8
1
  6
CONTINUOUS
 62
    80
100
AcDbCircle
 10
-4.35
 20
34.75
 30
0.0
 40
3.25
  0
LINE
  5
294
100
AcDbEntity
  8
1
  6
CONTINUOUS
 62
    80
100
AcDbLine
 10
3.655
 20
31.975
 30
0.0
 11
4.645
 21
31.975
 31
0.0
  0
LINE
  5
295
100
AcDbEntity
  8
1
  6
CONTINUOUS
 62
    80
100
AcDbLine
 10
3.656
 20
37.525
 30
0.0
 11
3.656
 21
37.073
 31
0.0
  0
LINE
  5
296
100
AcDbEntity
  8
1
  6
CONTINUOUS
 62
    80
100
AcDbLine
 10
3.656
 20
37.525
 30
0.0
 11
4.645
 21
37.525
 31
0.0
  0
LINE
  5
297
100
AcDbEntity
  8
1
  6
CONTINUOUS
 62
    80
100
AcDbLine
 10
4.645
 20
37.525
 30
0.0
 11
4.645
 21
37.073
 31
0.0
  0
CIRCLE
  5
298
100
AcDbEntity
  8
1
  6
CONTINUOUS
 62
    80
100
AcDbCircle
 10
4.15
 20
34.75
 30
0.0
 40
1.25
  0
LINE
  5
299
100
AcDbEntity
  8
1
  6
CONTINUOUS
 62
    80
100
AcDbLine
 10
4.645
 20
32.427
 30
0.0
 11
4.645
 21
31.975
 31
0.0
  0
LINE
  5
29A
100
AcDbEntity
  8
1
  6
CONTINUOUS
 62
    80
100
AcDbLine
 10
3.655
 20
32.427
 30
0.0
 11
3.655
 21
31.975
 31
0.0
  0
CIRCLE
  5
29B
100
AcDbEntity
  8
1
  6
CONTINUOUS
 62
    80
100
AcDbCircle
 10
4.15
 20
34.75
 30
0.0
 40
2.275
  0
CIRCLE
  5
29C
100
AcDbEntity
  8
1
  6
CONTINUOUS
 62
    80
100
AcDbCircle
 10
4.15
 20
34.75
 30
0.0
 40
2.375
  0
CIRCLE
  5
29D
100
AcDbEntity
  8
1
  6
CONTINUOUS
 62
    80
100
AcDbCircle
 10
4.15
 20
34.75
 30
0.0
 40
3.25
  0
LINE
  5
29E
100
AcDbEntity
  8
1
  6
CONTINUOUS
 62
    80
100
AcDbLine
 10
-4.845
 20
40.975
 30
0.0
 11
-3.855
 21
40.975
 31
0.0
  0
LINE
  5
29F
100
AcDbEntity
  8
1
  6
CONTINUOUS
 62
    80
100
AcDbLine
 10
-4.844
 20
46.525
 30
0.0
 11
-4.844
 21
46.073
 31
0.0
  0
LINE
  5
2A0
100
AcDbEntity
  8
1
  6
CONTINUOUS
 62
    80
100
AcDbLine
 10
-4.844
 20
46.525
 30
0.0
 11
-3.855
 21
46.525
 31
0.0
  0
LINE
  5
2A1
100
AcDbEntity
  8
1
  6
CONTINUOUS
 62
    80
100
AcDbLine
 10
-3.855
 20
46.525
 30
0.0
 11
-3.855
 21
46.073
 31
0.0
  0
CIRCLE
  5
2A2
100
AcDbEntity
  8
1
  6
CONTINUOUS
 62
    80
100
AcDbCircle
 10
-4.35
 20
43.75
 30
0.0
 40
1.25
  0
LINE
  5
2A3
100
AcDbEntity
  8
1
  6
CONTINUOUS
 62
    80
100
AcDbLine
 10
-3.855
 20
41.427
 30
0.0
 11
-3.855
 21
40.975
 31
0.0
  0
LINE
  5
2A4
100
AcDbEntity
  8
1
  6
CONTINUOUS
 62
    80
100
AcDbLine
 10
-4.845
 20
41.427
 30
0.0
 11
-4.845
 21
40.975
 31
0.0
  0
CIRCLE
  5
2A5
100
AcDbEntity
  8
1
  6
CONTINUOUS
 62
    80
100
AcDbCircle
 10
-4.35
 20
43.75
 30
0.0
 40
2.375
  0
CIRCLE
  5
2A6
100
AcDbEntity
  8
1
  6
CONTINUOUS
 62
    80
100
AcDbCircle
 10
-4.35
 20
43.75
 30
0.0
 40
2.275
  0
CIRCLE
  5
2A7
100
AcDbEntity
  8
1
  6
CONTINUOUS
 62
    80
100
AcDbCircle
 10
-4.35
 20
43.75
 30
0.0
 40
3.25
  0
LINE
  5
2A8
100
AcDbEntity
  8
1
  6
CONTINUOUS
 62
    80
100
AcDbLine
 10
3.655
 20
40.975
 30
0.0
 11
4.645
 21
40.975
 31
0.0
  0
LINE
  5
2A9
100
AcDbEntity
  8
1
  6
CONTINUOUS
 62
    80
100
AcDbLine
 10
3.656
 20
46.525
 30
0.0
 11
3.656
 21
46.073
 31
0.0
  0
LINE
  5
2AA
100
AcDbEntity
  8
1
  6
CONTINUOUS
 62
    80
100
AcDbLine
 10
3.656
 20
46.525
 30
0.0
 11
4.645
 21
46.525
 31
0.0
  0
LINE
  5
2AB
100
AcDbEntity
  8
1
  6
CONTINUOUS
 62
    80
100
AcDbLine
 10
4.645
 20
46.525
 30
0.0
 11
4.645
 21
46.073
 31
0.0
  0
CIRCLE
  5
2AC
100
AcDbEntity
  8
1
  6
CONTINUOUS
 62
    80
100
AcDbCircle
 10
4.15
 20
43.75
 30
0.0
 40
1.25
  0
LINE
  5
2AD
100
AcDbEntity
  8
1
  6
CONTINUOUS
 62
    80
100
AcDbLine
 10
4.645
 20
41.427
 30
0.0
 11
4.645
 21
40.975
 31
0.0
  0
LINE
  5
2AE
100
AcDbEntity
  8
1
  6
CONTINUOUS
 62
    80
100
AcDbLine
 10
3.655
 20
41.427
 30
0.0
 11
3.655
 21
40.975
 31
0.0
  0
CIRCLE
  5
2AF
100
AcDbEntity
  8
1
  6
CONTINUOUS
 62
    80
100
AcDbCircle
 10
4.15
 20
43.75
 30
0.0
 40
2.275
  0
CIRCLE
  5
2B0
100
AcDbEntity
  8
1
  6
CONTINUOUS
 62
    80
100
AcDbCircle
 10
4.15
 20
43.75
 30
0.0
 40
2.375
  0
CIRCLE
  5
2B1
100
AcDbEntity
  8
1
  6
CONTINUOUS
 62
    80
100
AcDbCircle
 10
4.15
 20
43.75
 30
0.0
 40
3.25
  0
LINE
  5
2B2
100
AcDbEntity
  8
1
  6
CONTINUOUS
 62
    80
100
AcDbLine
 10
-4.845
 20
49.975
 30
0.0
 11
-3.855
 21
49.975
 31
0.0
  0
LINE
  5
2B3
100
AcDbEntity
  8
1
  6
CONTINUOUS
 62
    80
100
AcDbLine
 10
-4.844
 20
55.525
 30
0.0
 11
-4.844
 21
55.073
 31
0.0
  0
LINE
  5
2B4
100
AcDbEntity
  8
1
  6
CONTINUOUS
 62
    80
100
AcDbLine
 10
-4.844
 20
55.525
 30
0.0
 11
-3.855
 21
55.525
 31
0.0
  0
LINE
  5
2B5
100
AcDbEntity
  8
1
  6
CONTINUOUS
 62
    80
100
AcDbLine
 10
-3.855
 20
55.525
 30
0.0
 11
-3.855
 21
55.073
 31
0.0
  0
CIRCLE
  5
2B6
100
AcDbEntity
  8
1
  6
CONTINUOUS
 62
    80
100
AcDbCircle
 10
-4.35
 20
52.75
 30
0.0
 40
1.25
  0
LINE
  5
2B7
100
AcDbEntity
  8
1
  6
CONTINUOUS
 62
    80
100
AcDbLine
 10
-3.855
 20
50.427
 30
0.0
 11
-3.855
 21
49.975
 31
0.0
  0
LINE
  5
2B8
100
AcDbEntity
  8
1
  6
CONTINUOUS
 62
    80
100
AcDbLine
 10
-4.845
 20
50.427
 30
0.0
 11
-4.845
 21
49.975
 31
0.0
  0
CIRCLE
  5
2B9
100
AcDbEntity
  8
1
  6
CONTINUOUS
 62
    80
100
AcDbCircle
 10
-4.35
 20
52.75
 30
0.0
 40
2.375
  0
CIRCLE
  5
2BA
100
AcDbEntity
  8
1
  6
CONTINUOUS
 62
    80
100
AcDbCircle
 10
-4.35
 20
52.75
 30
0.0
 40
2.275
  0
CIRCLE
  5
2BB
100
AcDbEntity
  8
1
  6
CONTINUOUS
 62
    80
100
AcDbCircle
 10
-4.35
 20
52.75
 30
0.0
 40
3.25
  0
LINE
  5
2BC
100
AcDbEntity
  8
1
  6
CONTINUOUS
 62
    80
100
AcDbLine
 10
3.655
 20
49.975
 30
0.0
 11
4.645
 21
49.975
 31
0.0
  0
LINE
  5
2BD
100
AcDbEntity
  8
1
  6
CONTINUOUS
 62
    80
100
AcDbLine
 10
3.656
 20
55.525
 30
0.0
 11
3.656
 21
55.073
 31
0.0
  0
LINE
  5
2BE
100
AcDbEntity
  8
1
  6
CONTINUOUS
 62
    80
100
AcDbLine
 10
3.656
 20
55.525
 30
0.0
 11
4.645
 21
55.525
 31
0.0
  0
LINE
  5
2BF
100
AcDbEntity
  8
1
  6
CONTINUOUS
 62
    80
100
AcDbLine
 10
4.645
 20
55.525
 30
0.0
 11
4.645
 21
55.073
 31
0.0
  0
CIRCLE
  5
2C0
100
AcDbEntity
  8
1
  6
CONTINUOUS
 62
    80
100
AcDbCircle
 10
4.15
 20
52.75
 30
0.0
 40
1.25
  0
LINE
  5
2C1
100
AcDbEntity
  8
1
  6
CONTINUOUS
 62
    80
100
AcDbLine
 10
4.645
 20
50.427
 30
0.0
 11
4.645
 21
49.975
 31
0.0
  0
LINE
  5
2C2
100
AcDbEntity
  8
1
  6
CONTINUOUS
 62
    80
100
AcDbLine
 10
3.655
 20
50.427
 30
0.0
 11
3.655
 21
49.975
 31
0.0
  0
CIRCLE
  5
2C3
100
AcDbEntity
  8
1
  6
CONTINUOUS
 62
    80
100
AcDbCircle
 10
4.15
 20
52.75
 30
0.0
 40
2.275
  0
CIRCLE
  5
2C4
100
AcDbEntity
  8
1
  6
CONTINUOUS
 62
    80
100
AcDbCircle
 10
4.15
 20
52.75
 30
0.0
 40
2.375
  0
CIRCLE
  5
2C5
100
AcDbEntity
  8
1
  6
CONTINUOUS
 62
    80
100
AcDbCircle
 10
4.15
 20
52.75
 30
0.0
 40
3.25
  0
LINE
  5
2C6
100
AcDbEntity
  8
1
  6
CONTINUOUS
 62
    80
100
AcDbLine
 10
-4.845
 20
58.975
 30
0.0
 11
-3.855
 21
58.975
 31
0.0
  0
LINE
  5
2C7
100
AcDbEntity
  8
1
  6
CONTINUOUS
 62
    80
100
AcDbLine
 10
-4.844
 20
64.525
 30
0.0
 11
-4.844
 21
64.073
 31
0.0
  0
LINE
  5
2C8
100
AcDbEntity
  8
1
  6
CONTINUOUS
 62
    80
100
AcDbLine
 10
-4.844
 20
64.525
 30
0.0
 11
-3.855
 21
64.525
 31
0.0
  0
LINE
  5
2C9
100
AcDbEntity
  8
1
  6
CONTINUOUS
 62
    80
100
AcDbLine
 10
-3.855
 20
64.525
 30
0.0
 11
-3.855
 21
64.073
 31
0.0
  0
CIRCLE
  5
2CA
100
AcDbEntity
  8
1
  6
CONTINUOUS
 62
    80
100
AcDbCircle
 10
-4.35
 20
61.75
 30
0.0
 40
1.25
  0
LINE
  5
2CB
100
AcDbEntity
  8
1
  6
CONTINUOUS
 62
    80
100
AcDbLine
 10
-3.855
 20
59.427
 30
0.0
 11
-3.855
 21
58.975
 31
0.0
  0
LINE
  5
2CC
100
AcDbEntity
  8
1
  6
CONTINUOUS
 62
    80
100
AcDbLine
 10
-4.845
 20
59.427
 30
0.0
 11
-4.845
 21
58.975
 31
0.0
  0
CIRCLE
  5
2CD
100
AcDbEntity
  8
1
  6
CONTINUOUS
 62
    80
100
AcDbCircle
 10
-4.35
 20
61.75
 30
0.0
 40
2.375
  0
CIRCLE
  5
2CE
100
AcDbEntity
  8
1
  6
CONTINUOUS
 62
    80
100
AcDbCircle
 10
-4.35
 20
61.75
 30
0.0
 40
2.275
  0
CIRCLE
  5
2CF
100
AcDbEntity
  8
1
  6
CONTINUOUS
 62
    80
100
AcDbCircle
 10
-4.35
 20
61.75
 30
0.0
 40
3.25
  0
LINE
  5
2D0
100
AcDbEntity
  8
1
  6
CONTINUOUS
 62
    80
100
AcDbLine
 10
3.655
 20
58.975
 30
0.0
 11
4.645
 21
58.975
 31
0.0
  0
LINE
  5
2D1
100
AcDbEntity
  8
1
  6
CONTINUOUS
 62
    80
100
AcDbLine
 10
3.656
 20
64.525
 30
0.0
 11
3.656
 21
64.073
 31
0.0
  0
LINE
  5
2D2
100
AcDbEntity
  8
1
  6
CONTINUOUS
 62
    80
100
AcDbLine
 10
3.656
 20
64.525
 30
0.0
 11
4.645
 21
64.525
 31
0.0
  0
LINE
  5
2D3
100
AcDbEntity
  8
1
  6
CONTINUOUS
 62
    80
100
AcDbLine
 10
4.645
 20
64.525
 30
0.0
 11
4.645
 21
64.073
 31
0.0
  0
CIRCLE
  5
2D4
100
AcDbEntity
  8
1
  6
CONTINUOUS
 62
    80
100
AcDbCircle
 10
4.15
 20
61.75
 30
0.0
 40
1.25
  0
LINE
  5
2D5
100
AcDbEntity
  8
1
  6
CONTINUOUS
 62
    80
100
AcDbLine
 10
4.645
 20
59.427
 30
0.0
 11
4.645
 21
58.975
 31
0.0
  0
LINE
  5
2D6
100
AcDbEntity
  8
1
  6
CONTINUOUS
 62
    80
100
AcDbLine
 10
3.655
 20
59.427
 30
0.0
 11
3.655
 21
58.975
 31
0.0
  0
CIRCLE
  5
2D7
100
AcDbEntity
  8
1
  6
CONTINUOUS
 62
    80
100
AcDbCircle
 10
4.15
 20
61.75
 30
0.0
 40
2.275
  0
CIRCLE
  5
2D8
100
AcDbEntity
  8
1
  6
CONTINUOUS
 62
    80
100
AcDbCircle
 10
4.15
 20
61.75
 30
0.0
 40
2.375
  0
CIRCLE
  5
2D9
100
AcDbEntity
  8
1
  6
CONTINUOUS
 62
    80
100
AcDbCircle
 10
4.15
 20
61.75
 30
0.0
 40
3.25
  0
LINE
  5
2DA
100
AcDbEntity
  8
1
  6
CONTINUOUS
 62
    80
100
AcDbLine
 10
-4.845
 20
67.975
 30
0.0
 11
-3.855
 21
67.975
 31
0.0
  0
LINE
  5
2DB
100
AcDbEntity
  8
1
  6
CONTINUOUS
 62
    80
100
AcDbLine
 10
-4.844
 20
73.525
 30
0.0
 11
-4.844
 21
73.073
 31
0.0
  0
LINE
  5
2DC
100
AcDbEntity
  8
1
  6
CONTINUOUS
 62
    80
100
AcDbLine
 10
-4.844
 20
73.525
 30
0.0
 11
-3.855
 21
73.525
 31
0.0
  0
LINE
  5
2DD
100
AcDbEntity
  8
1
  6
CONTINUOUS
 62
    80
100
AcDbLine
 10
-3.855
 20
73.525
 30
0.0
 11
-3.855
 21
73.073
 31
0.0
  0
CIRCLE
  5
2DE
100
AcDbEntity
  8
1
  6
CONTINUOUS
 62
    80
100
AcDbCircle
 10
-4.35
 20
70.75
 30
0.0
 40
1.25
  0
LINE
  5
2DF
100
AcDbEntity
  8
1
  6
CONTINUOUS
 62
    80
100
AcDbLine
 10
-3.855
 20
68.427
 30
0.0
 11
-3.855
 21
67.975
 31
0.0
  0
LINE
  5
2E0
100
AcDbEntity
  8
1
  6
CONTINUOUS
 62
    80
100
AcDbLine
 10
-4.845
 20
68.427
 30
0.0
 11
-4.845
 21
67.975
 31
0.0
  0
CIRCLE
  5
2E1
100
AcDbEntity
  8
1
  6
CONTINUOUS
 62
    80
100
AcDbCircle
 10
-4.35
 20
70.75
 30
0.0
 40
2.375
  0
CIRCLE
  5
2E2
100
AcDbEntity
  8
1
  6
CONTINUOUS
 62
    80
100
AcDbCircle
 10
-4.35
 20
70.75
 30
0.0
 40
2.275
  0
CIRCLE
  5
2E3
100
AcDbEntity
  8
1
  6
CONTINUOUS
 62
    80
100
AcDbCircle
 10
-4.35
 20
70.75
 30
0.0
 40
3.25
  0
LINE
  5
2E4
100
AcDbEntity
  8
1
  6
CONTINUOUS
 62
    80
100
AcDbLine
 10
3.655
 20
67.975
 30
0.0
 11
4.645
 21
67.975
 31
0.0
  0
LINE
  5
2E5
100
AcDbEntity
  8
1
  6
CONTINUOUS
 62
    80
100
AcDbLine
 10
3.656
 20
73.525
 30
0.0
 11
3.656
 21
73.073
 31
0.0
  0
LINE
  5
2E6
100
AcDbEntity
  8
1
  6
CONTINUOUS
 62
    80
100
AcDbLine
 10
3.656
 20
73.525
 30
0.0
 11
4.645
 21
73.525
 31
0.0
  0
LINE
  5
2E7
100
AcDbEntity
  8
1
  6
CONTINUOUS
 62
    80
100
AcDbLine
 10
4.645
 20
73.525
 30
0.0
 11
4.645
 21
73.073
 31
0.0
  0
CIRCLE
  5
2E8
100
AcDbEntity
  8
1
  6
CONTINUOUS
 62
    80
100
AcDbCircle
 10
4.15
 20
70.75
 30
0.0
 40
1.25
  0
LINE
  5
2E9
100
AcDbEntity
  8
1
  6
CONTINUOUS
 62
    80
100
AcDbLine
 10
4.645
 20
68.427
 30
0.0
 11
4.645
 21
67.975
 31
0.0
  0
LINE
  5
2EA
100
AcDbEntity
  8
1
  6
CONTINUOUS
 62
    80
100
AcDbLine
 10
3.655
 20
68.427
 30
0.0
 11
3.655
 21
67.975
 31
0.0
  0
CIRCLE
  5
2EB
100
AcDbEntity
  8
1
  6
CONTINUOUS
 62
    80
100
AcDbCircle
 10
4.15
 20
70.75
 30
0.0
 40
2.275
  0
CIRCLE
  5
2EC
100
AcDbEntity
  8
1
  6
CONTINUOUS
 62
    80
100
AcDbCircle
 10
4.15
 20
70.75
 30
0.0
 40
2.375
  0
CIRCLE
  5
2ED
100
AcDbEntity
  8
1
  6
CONTINUOUS
 62
    80
100
AcDbCircle
 10
4.15
 20
70.75
 30
0.0
 40
3.25
  0
LINE
  5
2EE
100
AcDbEntity
  8
1
  6
CONTINUOUS
 62
    80
100
AcDbLine
 10
-4.845
 20
76.975
 30
0.0
 11
-3.855
 21
76.975
 31
0.0
  0
LINE
  5
2EF
100
AcDbEntity
  8
1
  6
CONTINUOUS
 62
    80
100
AcDbLine
 10
-4.844
 20
82.525
 30
0.0
 11
-4.844
 21
82.073
 31
0.0
  0
LINE
  5
2F0
100
AcDbEntity
  8
1
  6
CONTINUOUS
 62
    80
100
AcDbLine
 10
-4.844
 20
82.525
 30
0.0
 11
-3.855
 21
82.525
 31
0.0
  0
LINE
  5
2F1
100
AcDbEntity
  8
1
  6
CONTINUOUS
 62
    80
100
AcDbLine
 10
-3.855
 20
82.525
 30
0.0
 11
-3.855
 21
82.073
 31
0.0
  0
CIRCLE
  5
2F2
100
AcDbEntity
  8
1
  6
CONTINUOUS
 62
    80
100
AcDbCircle
 10
-4.35
 20
79.75
 30
0.0
 40
1.25
  0
LINE
  5
2F3
100
AcDbEntity
  8
1
  6
CONTINUOUS
 62
    80
100
AcDbLine
 10
-3.855
 20
77.427
 30
0.0
 11
-3.855
 21
76.975
 31
0.0
  0
LINE
  5
2F4
100
AcDbEntity
  8
1
  6
CONTINUOUS
 62
    80
100
AcDbLine
 10
-4.845
 20
77.427
 30
0.0
 11
-4.845
 21
76.975
 31
0.0
  0
CIRCLE
  5
2F5
100
AcDbEntity
  8
1
  6
CONTINUOUS
 62
    80
100
AcDbCircle
 10
-4.35
 20
79.75
 30
0.0
 40
2.375
  0
CIRCLE
  5
2F6
100
AcDbEntity
  8
1
  6
CONTINUOUS
 62
    80
100
AcDbCircle
 10
-4.35
 20
79.75
 30
0.0
 40
2.275
  0
CIRCLE
  5
2F7
100
AcDbEntity
  8
1
  6
CONTINUOUS
 62
    80
100
AcDbCircle
 10
-4.35
 20
79.75
 30
0.0
 40
3.25
  0
LINE
  5
2F8
100
AcDbEntity
  8
1
  6
CONTINUOUS
 62
    80
100
AcDbLine
 10
3.655
 20
76.975
 30
0.0
 11
4.645
 21
76.975
 31
0.0
  0
LINE
  5
2F9
100
AcDbEntity
  8
1
  6
CONTINUOUS
 62
    80
100
AcDbLine
 10
3.656
 20
82.525
 30
0.0
 11
3.656
 21
82.073
 31
0.0
  0
LINE
  5
2FA
100
AcDbEntity
  8
1
  6
CONTINUOUS
 62
    80
100
AcDbLine
 10
3.656
 20
82.525
 30
0.0
 11
4.645
 21
82.525
 31
0.0
  0
LINE
  5
2FB
100
AcDbEntity
  8
1
  6
CONTINUOUS
 62
    80
100
AcDbLine
 10
4.645
 20
82.525
 30
0.0
 11
4.645
 21
82.073
 31
0.0
  0
CIRCLE
  5
2FC
100
AcDbEntity
  8
1
  6
CONTINUOUS
 62
    80
100
AcDbCircle
 10
4.15
 20
79.75
 30
0.0
 40
1.25
  0
LINE
  5
2FD
100
AcDbEntity
  8
1
  6
CONTINUOUS
 62
    80
100
AcDbLine
 10
4.645
 20
77.427
 30
0.0
 11
4.645
 21
76.975
 31
0.0
  0
LINE
  5
2FE
100
AcDbEntity
  8
1
  6
CONTINUOUS
 62
    80
100
AcDbLine
 10
3.655
 20
77.427
 30
0.0
 11
3.655
 21
76.975
 31
0.0
  0
CIRCLE
  5
2FF
100
AcDbEntity
  8
1
  6
CONTINUOUS
 62
    80
100
AcDbCircle
 10
4.15
 20
79.75
 30
0.0
 40
2.275
  0
CIRCLE
  5
300
100
AcDbEntity
  8
1
  6
CONTINUOUS
 62
    80
100
AcDbCircle
 10
4.15
 20
79.75
 30
0.0
 40
2.375
  0
CIRCLE
  5
301
100
AcDbEntity
  8
1
  6
CONTINUOUS
 62
    80
100
AcDbCircle
 10
4.15
 20
79.75
 30
0.0
 40
3.25
  0
LINE
  5
302
100
AcDbEntity
  8
1
  6
CONTINUOUS
 62
    80
100
AcDbLine
 10
-4.845
 20
85.975
 30
0.0
 11
-3.855
 21
85.975
 31
0.0
  0
LINE
  5
303
100
AcDbEntity
  8
1
  6
CONTINUOUS
 62
    80
100
AcDbLine
 10
-4.844
 20
91.525
 30
0.0
 11
-4.844
 21
91.073
 31
0.0
  0
LINE
  5
304
100
AcDbEntity
  8
1
  6
CONTINUOUS
 62
    80
100
AcDbLine
 10
-4.844
 20
91.525
 30
0.0
 11
-3.855
 21
91.525
 31
0.0
  0
LINE
  5
305
100
AcDbEntity
  8
1
  6
CONTINUOUS
 62
    80
100
AcDbLine
 10
-3.855
 20
91.525
 30
0.0
 11
-3.855
 21
91.073
 31
0.0
  0
CIRCLE
  5
306
100
AcDbEntity
  8
1
  6
CONTINUOUS
 62
    80
100
AcDbCircle
 10
-4.35
 20
88.75
 30
0.0
 40
1.25
  0
LINE
  5
307
100
AcDbEntity
  8
1
  6
CONTINUOUS
 62
    80
100
AcDbLine
 10
-3.855
 20
86.427
 30
0.0
 11
-3.855
 21
85.975
 31
0.0
  0
LINE
  5
308
100
AcDbEntity
  8
1
  6
CONTINUOUS
 62
    80
100
AcDbLine
 10
-4.845
 20
86.427
 30
0.0
 11
-4.845
 21
85.975
 31
0.0
  0
CIRCLE
  5
309
100
AcDbEntity
  8
1
  6
CONTINUOUS
 62
    80
100
AcDbCircle
 10
-4.35
 20
88.75
 30
0.0
 40
2.375
  0
CIRCLE
  5
30A
100
AcDbEntity
  8
1
  6
CONTINUOUS
 62
    80
100
AcDbCircle
 10
-4.35
 20
88.75
 30
0.0
 40
2.275
  0
CIRCLE
  5
30B
100
AcDbEntity
  8
1
  6
CONTINUOUS
 62
    80
100
AcDbCircle
 10
-4.35
 20
88.75
 30
0.0
 40
3.25
  0
LINE
  5
30C
100
AcDbEntity
  8
1
  6
CONTINUOUS
 62
    80
100
AcDbLine
 10
3.655
 20
85.975
 30
0.0
 11
4.645
 21
85.975
 31
0.0
  0
LINE
  5
30D
100
AcDbEntity
  8
1
  6
CONTINUOUS
 62
    80
100
AcDbLine
 10
3.656
 20
91.525
 30
0.0
 11
3.656
 21
91.073
 31
0.0
  0
LINE
  5
30E
100
AcDbEntity
  8
1
  6
CONTINUOUS
 62
    80
100
AcDbLine
 10
3.656
 20
91.525
 30
0.0
 11
4.645
 21
91.525
 31
0.0
  0
LINE
  5
30F
100
AcDbEntity
  8
1
  6
CONTINUOUS
 62
    80
100
AcDbLine
 10
4.645
 20
91.525
 30
0.0
 11
4.645
 21
91.073
 31
0.0
  0
CIRCLE
  5
310
100
AcDbEntity
  8
1
  6
CONTINUOUS
 62
    80
100
AcDbCircle
 10
4.15
 20
88.75
 30
0.0
 40
1.25
  0
LINE
  5
311
100
AcDbEntity
  8
1
  6
CONTINUOUS
 62
    80
100
AcDbLine
 10
4.645
 20
86.427
 30
0.0
 11
4.645
 21
85.975
 31
0.0
  0
LINE
  5
312
100
AcDbEntity
  8
1
  6
CONTINUOUS
 62
    80
100
AcDbLine
 10
3.655
 20
86.427
 30
0.0
 11
3.655
 21
85.975
 31
0.0
  0
CIRCLE
  5
313
100
AcDbEntity
  8
1
  6
CONTINUOUS
 62
    80
100
AcDbCircle
 10
4.15
 20
88.75
 30
0.0
 40
2.275
  0
CIRCLE
  5
314
100
AcDbEntity
  8
1
  6
CONTINUOUS
 62
    80
100
AcDbCircle
 10
4.15
 20
88.75
 30
0.0
 40
2.375
  0
CIRCLE
  5
315
100
AcDbEntity
  8
1
  6
CONTINUOUS
 62
    80
100
AcDbCircle
 10
4.15
 20
88.75
 30
0.0
 40
3.25
  0
LINE
  5
316
100
AcDbEntity
  8
1
  6
CONTINUOUS
 62
     7
100
AcDbLine
 10
-1.575
 20
-45.75
 30
0.0
 11
-1.575
 21
-66.75
 31
0.0
  0
LINE
  5
317
100
AcDbEntity
  8
1
  6
CONTINUOUS
 62
     7
100
AcDbLine
 10
-7.325
 20
-45.75
 30
0.0
 11
-7.325
 21
-66.75
 31
0.0
  0
LINE
  5
318
100
AcDbEntity
  8
1
  6
CONTINUOUS
 62
     7
100
AcDbLine
 10
-7.325
 20
-45.75
 30
0.0
 11
-1.575
 21
-45.75
 31
0.0
  0
LINE
  5
319
100
AcDbEntity
  8
1
  6
CONTINUOUS
 62
     7
100
AcDbLine
 10
-7.325
 20
-66.75
 30
0.0
 11
-1.575
 21
-66.75
 31
0.0
  0
CIRCLE
  5
31A
100
AcDbEntity
  8
1
  6
CONTINUOUS
 62
    80
100
AcDbCircle
 10
-4.45
 20
-44.5
 30
0.0
 40
0.75
  0
CIRCLE
  5
31B
100
AcDbEntity
  8
1
  6
CONTINUOUS
 62
    80
100
AcDbCircle
 10
-4.45
 20
-68.0
 30
0.0
 40
0.75
  0
LINE
  5
31C
100
AcDbEntity
  8
1
  6
CONTINUOUS
 62
    80
100
AcDbLine
 10
-4.845
 20
94.975
 30
0.0
 11
-3.855
 21
94.975
 31
0.0
  0
LINE
  5
31D
100
AcDbEntity
  8
1
  6
CONTINUOUS
 62
    80
100
AcDbLine
 10
-4.844
 20
100.525
 30
0.0
 11
-4.844
 21
100.073
 31
0.0
  0
LINE
  5
31E
100
AcDbEntity
  8
1
  6
CONTINUOUS
 62
    80
100
AcDbLine
 10
-4.844
 20
100.525
 30
0.0
 11
-3.855
 21
100.525
 31
0.0
  0
LINE
  5
31F
100
AcDbEntity
  8
1
  6
CONTINUOUS
 62
    80
100
AcDbLine
 10
-3.855
 20
100.525
 30
0.0
 11
-3.855
 21
100.073
 31
0.0
  0
CIRCLE
  5
320
100
AcDbEntity
  8
1
  6
CONTINUOUS
 62
    80
100
AcDbCircle
 10
-4.35
 20
97.75
 30
0.0
 40
1.25
  0
LINE
  5
321
100
AcDbEntity
  8
1
  6
CONTINUOUS
 62
    80
100
AcDbLine
 10
-3.855
 20
95.427
 30
0.0
 11
-3.855
 21
94.975
 31
0.0
  0
LINE
  5
322
100
AcDbEntity
  8
1
  6
CONTINUOUS
 62
    80
100
AcDbLine
 10
-4.845
 20
95.427
 30
0.0
 11
-4.845
 21
94.975
 31
0.0
  0
CIRCLE
  5
323
100
AcDbEntity
  8
1
  6
CONTINUOUS
 62
    80
100
AcDbCircle
 10
-4.35
 20
97.75
 30
0.0
 40
2.375
  0
CIRCLE
  5
324
100
AcDbEntity
  8
1
  6
CONTINUOUS
 62
    80
100
AcDbCircle
 10
-4.35
 20
97.75
 30
0.0
 40
2.275
  0
CIRCLE
  5
325
100
AcDbEntity
  8
1
  6
CONTINUOUS
 62
    80
100
AcDbCircle
 10
-4.35
 20
97.75
 30
0.0
 40
3.25
  0
LINE
  5
326
100
AcDbEntity
  8
1
  6
CONTINUOUS
 62
    80
100
AcDbLine
 10
3.655
 20
94.975
 30
0.0
 11
4.645
 21
94.975
 31
0.0
  0
LINE
  5
327
100
AcDbEntity
  8
1
  6
CONTINUOUS
 62
    80
100
AcDbLine
 10
3.656
 20
100.525
 30
0.0
 11
3.656
 21
100.073
 31
0.0
  0
LINE
  5
328
100
AcDbEntity
  8
1
  6
CONTINUOUS
 62
    80
100
AcDbLine
 10
3.656
 20
100.525
 30
0.0
 11
4.645
 21
100.525
 31
0.0
  0
LINE
  5
329
100
AcDbEntity
  8
1
  6
CONTINUOUS
 62
    80
100
AcDbLine
 10
4.645
 20
100.525
 30
0.0
 11
4.645
 21
100.073
 31
0.0
  0
CIRCLE
  5
32A
100
AcDbEntity
  8
1
  6
CONTINUOUS
 62
    80
100
AcDbCircle
 10
4.15
 20
97.75
 30
0.0
 40
1.25
  0
LINE
  5
32B
100
AcDbEntity
  8
1
  6
CONTINUOUS
 62
    80
100
AcDbLine
 10
4.645
 20
95.427
 30
0.0
 11
4.645
 21
94.975
 31
0.0
  0
LINE
  5
32C
100
AcDbEntity
  8
1
  6
CONTINUOUS
 62
    80
100
AcDbLine
 10
3.655
 20
95.427
 30
0.0
 11
3.655
 21
94.975
 31
0.0
  0
CIRCLE
  5
32D
100
AcDbEntity
  8
1
  6
CONTINUOUS
 62
    80
100
AcDbCircle
 10
4.15
 20
97.75
 30
0.0
 40
2.275
  0
CIRCLE
  5
32E
100
AcDbEntity
  8
1
  6
CONTINUOUS
 62
    80
100
AcDbCircle
 10
4.15
 20
97.75
 30
0.0
 40
2.375
  0
CIRCLE
  5
32F
100
AcDbEntity
  8
1
  6
CONTINUOUS
 62
    80
100
AcDbCircle
 10
4.15
 20
97.75
 30
0.0
 40
3.25
  0
CIRCLE
  5
330
100
AcDbEntity
  8
1
  6
CONTINUOUS
 62
    80
100
AcDbCircle
 10
-3.74
 20
-60.36
 30
0.0
 40
0.3
  0
CIRCLE
  5
331
100
AcDbEntity
  8
1
  6
CONTINUOUS
 62
    80
100
AcDbCircle
 10
-5.16
 20
-61.045
 30
0.0
 40
0.3
  0
CIRCLE
  5
332
100
AcDbEntity
  8
1
  6
CONTINUOUS
 62
    80
100
AcDbCircle
 10
-3.74
 20
-61.73
 30
0.0
 40
0.3
  0
CIRCLE
  5
333
100
AcDbEntity
  8
1
  6
CONTINUOUS
 62
    80
100
AcDbCircle
 10
-5.16
 20
-62.415
 30
0.0
 40
0.3
  0
CIRCLE
  5
334
100
AcDbEntity
  8
1
  6
CONTINUOUS
 62
    80
100
AcDbCircle
 10
-3.74
 20
-63.1
 30
0.0
 40
0.3
  0
CIRCLE
  5
335
100
AcDbEntity
  8
1
  6
CONTINUOUS
 62
    80
100
AcDbCircle
 10
-5.16
 20
-51.455
 30
0.0
 40
0.3
  0
CIRCLE
  5
336
100
AcDbEntity
  8
1
  6
CONTINUOUS
 62
    80
100
AcDbCircle
 10
-3.74
 20
-50.77
 30
0.0
 40
0.3
  0
LINE
  5
337
100
AcDbEntity
  8
1
  6
CONTINUOUS
 62
    80
100
AcDbLine
 10
-5.441
 20
-65.547
 30
0.0
 11
-3.833
 21
-65.831
 31
0.0
  0
LINE
  5
338
100
AcDbEntity
  8
1
  6
CONTINUOUS
 62
    80
100
AcDbLine
 10
-2.499
 20
-47.828
 30
0.0
 11
-2.5
 21
-64.729
 31
0.0
  0
LINE
  5
339
100
AcDbEntity
  8
1
  6
CONTINUOUS
 62
    80
100
AcDbLine
 10
-6.4
 20
-48.088
 30
0.0
 11
-6.4
 21
-64.367
 31
0.0
  0
ARC
  5
33A
100
AcDbEntity
  8
1
  6
CONTINUOUS
 62
    80
100
AcDbCircle
 10
-3.649
 20
-64.695
 30
0.0
 40
1.15
100
AcDbArc
 50
260.7996
 51
0.0
  0
ARC
  5
33B
100
AcDbEntity
  8
1
  6
CONTINUOUS
 62
    80
100
AcDbCircle
 10
-5.25
 20
-64.413
 30
0.0
 40
1.15
100
AcDbArc
 50
178.85324
 51
260.43938
  0
LINE
  5
33C
100
AcDbEntity
  8
1
  6
CONTINUOUS
 62
    80
100
AcDbLine
 10
-3.833
 20
-46.67
 30
0.0
 11
-5.441
 21
-46.953
 31
0.0
  0
ARC
  5
33D
100
AcDbEntity
  8
1
  6
CONTINUOUS
 62
    80
100
AcDbCircle
 10
-3.649
 20
-47.805
 30
0.0
 40
1.15
100
AcDbArc
 50
0.0
 51
99.20836
  0
ARC
  5
33E
100
AcDbEntity
  8
1
  6
CONTINUOUS
 62
    80
100
AcDbCircle
 10
-5.25
 20
-48.088
 30
0.0
 40
1.15
100
AcDbArc
 50
99.56061
 51
181.14676
  0
LINE
  5
33F
100
AcDbEntity
  8
1
  6
CONTINUOUS
 62
    80
100
AcDbLine
 10
-3.789
 20
-46.916
 30
0.0
 11
-5.397
 21
-47.199
 31
0.0
  0
LINE
  5
340
100
AcDbEntity
  8
1
  6
CONTINUOUS
 62
    80
100
AcDbLine
 10
-5.397
 20
-65.301
 30
0.0
 11
-3.789
 21
-65.585
 31
0.0
  0
LINE
  5
341
100
AcDbEntity
  8
1
  6
CONTINUOUS
 62
    80
100
AcDbLine
 10
-6.15
 20
-48.088
 30
0.0
 11
-6.15
 21
-64.413
 31
0.0
  0
LINE
  5
342
100
AcDbEntity
  8
1
  6
CONTINUOUS
 62
    80
100
AcDbLine
 10
-2.749
 20
-47.828
 30
0.0
 11
-2.75
 21
-64.725
 31
0.0
  0
ARC
  5
343
100
AcDbEntity
  8
1
  6
CONTINUOUS
 62
    80
100
AcDbCircle
 10
-5.25
 20
-48.088
 30
0.0
 40
0.9
100
AcDbArc
 50
99.39953
 51
178.53446
  0
ARC
  5
344
100
AcDbEntity
  8
1
  6
CONTINUOUS
 62
    80
100
AcDbCircle
 10
-3.649
 20
-47.805
 30
0.0
 40
0.9
100
AcDbArc
 50
0.0
 51
98.94945
  0
ARC
  5
345
100
AcDbEntity
  8
1
  6
CONTINUOUS
 62
    80
100
AcDbCircle
 10
-5.25
 20
-64.413
 30
0.0
 40
0.9
100
AcDbArc
 50
180.0
 51
260.60046
  0
ARC
  5
346
100
AcDbEntity
  8
1
  6
CONTINUOUS
 62
    80
100
AcDbCircle
 10
-3.649
 20
-64.695
 30
0.0
 40
0.9
100
AcDbArc
 50
261.05054
 51
1.65659
  0
LINE
  5
347
100
AcDbEntity
  8
1
  6
CONTINUOUS
 62
    80
100
AcDbLine
 10
-5.172
 20
-43.25
 30
0.0
 11
-3.728
 21
-43.25
 31
0.0
  0
LINE
  5
348
100
AcDbEntity
  8
1
  6
CONTINUOUS
 62
     7
100
AcDbLine
 10
-5.173
 20
-45.75
 30
0.0
 11
-3.73
 21
-45.75
 31
0.0
  0
LINE
  5
349
100
AcDbEntity
  8
1
  6
CONTINUOUS
 62
    80
100
AcDbLine
 10
-5.172
 20
-43.25
 30
0.0
 11
-5.895
 21
-44.5
 31
0.0
  0
LINE
  5
34A
100
AcDbEntity
  8
1
  6
CONTINUOUS
 62
    80
100
AcDbLine
 10
-3.007
 20
-44.5
 30
0.0
 11
-3.73
 21
-45.75
 31
0.0
  0
LINE
  5
34B
100
AcDbEntity
  8
1
  6
CONTINUOUS
 62
    80
100
AcDbLine
 10
-5.894
 20
-44.5
 30
0.0
 11
-5.173
 21
-45.75
 31
0.0
  0
LINE
  5
34C
100
AcDbEntity
  8
1
  6
CONTINUOUS
 62
    80
100
AcDbLine
 10
-3.728
 20
-43.25
 30
0.0
 11
-3.008
 21
-44.5
 31
0.0
  0
LINE
  5
34D
100
AcDbEntity
  8
1
  6
CONTINUOUS
 62
     7
100
AcDbLine
 10
-5.172
 20
-66.745
 30
0.0
 11
-3.728
 21
-66.745
 31
0.0
  0
LINE
  5
34E
100
AcDbEntity
  8
1
  6
CONTINUOUS
 62
    80
100
AcDbLine
 10
-5.173
 20
-69.245
 30
0.0
 11
-3.73
 21
-69.245
 31
0.0
  0
LINE
  5
34F
100
AcDbEntity
  8
1
  6
CONTINUOUS
 62
    80
100
AcDbLine
 10
-5.172
 20
-66.745
 30
0.0
 11
-5.895
 21
-67.995
 31
0.0
  0
LINE
  5
350
100
AcDbEntity
  8
1
  6
CONTINUOUS
 62
    80
100
AcDbLine
 10
-3.007
 20
-67.995
 30
0.0
 11
-3.73
 21
-69.245
 31
0.0
  0
LINE
  5
351
100
AcDbEntity
  8
1
  6
CONTINUOUS
 62
    80
100
AcDbLine
 10
-5.894
 20
-67.995
 30
0.0
 11
-5.173
 21
-69.245
 31
0.0
  0
LINE
  5
352
100
AcDbEntity
  8
1
  6
CONTINUOUS
 62
    80
100
AcDbLine
 10
-3.728
 20
-66.745
 30
0.0
 11
-3.008
 21
-67.995
 31
0.0
  0
CIRCLE
  5
353
100
AcDbEntity
  8
1
  6
CONTINUOUS
 62
    80
100
AcDbCircle
 10
-5.16
 20
-63.785
 30
0.0
 40
0.3
  0
CIRCLE
  5
354
100
AcDbEntity
  8
1
  6
CONTINUOUS
 62
    80
100
AcDbCircle
 10
-3.74
 20
-64.47
 30
0.0
 40
0.3
  0
CIRCLE
  5
355
100
AcDbEntity
  8
1
  6
CONTINUOUS
 62
    80
100
AcDbCircle
 10
-3.74
 20
-49.4
 30
0.0
 40
0.3
  0
CIRCLE
  5
356
100
AcDbEntity
  8
1
  6
CONTINUOUS
 62
    80
100
AcDbCircle
 10
-5.16
 20
-50.085
 30
0.0
 40
0.3
  0
CIRCLE
  5
357
100
AcDbEntity
  8
1
  6
CONTINUOUS
 62
    80
100
AcDbCircle
 10
-5.16
 20
-48.715
 30
0.0
 40
0.3
  0
CIRCLE
  5
358
100
AcDbEntity
  8
1
  6
CONTINUOUS
 62
    80
100
AcDbCircle
 10
-3.74
 20
-48.03
 30
0.0
 40
0.3
  0
CIRCLE
  5
359
100
AcDbEntity
  8
1
  6
CONTINUOUS
 62
    80
100
AcDbCircle
 10
-5.16
 20
-59.675
 30
0.0
 40
0.3
  0
CIRCLE
  5
35A
100
AcDbEntity
  8
1
  6
CONTINUOUS
 62
    80
100
AcDbCircle
 10
-3.74
 20
-53.51
 30
0.0
 40
0.3
  0
CIRCLE
  5
35B
100
AcDbEntity
  8
1
  6
CONTINUOUS
 62
    80
100
AcDbCircle
 10
-3.74
 20
-52.14
 30
0.0
 40
0.3
  0
CIRCLE
  5
35C
100
AcDbEntity
  8
1
  6
CONTINUOUS
 62
    80
100
AcDbCircle
 10
-5.16
 20
-52.825
 30
0.0
 40
0.3
  0
CIRCLE
  5
35D
100
AcDbEntity
  8
1
  6
CONTINUOUS
 62
    80
100
AcDbCircle
 10
-3.74
 20
-53.51
 30
0.0
 40
0.3
  0
CIRCLE
  5
35E
100
AcDbEntity
  8
1
  6
CONTINUOUS
 62
    80
100
AcDbCircle
 10
-5.16
 20
-54.195
 30
0.0
 40
0.3
  0
CIRCLE
  5
35F
100
AcDbEntity
  8
1
  6
CONTINUOUS
 62
    80
100
AcDbCircle
 10
-3.74
 20
-54.88
 30
0.0
 40
0.3
  0
CIRCLE
  5
360
100
AcDbEntity
  8
1
  6
CONTINUOUS
 62
    80
100
AcDbCircle
 10
-5.16
 20
-55.565
 30
0.0
 40
0.3
  0
CIRCLE
  5
361
100
AcDbEntity
  8
1
  6
CONTINUOUS
 62
    80
100
AcDbCircle
 10
-3.74
 20
-56.25
 30
0.0
 40
0.3
  0
CIRCLE
  5
362
100
AcDbEntity
  8
1
  6
CONTINUOUS
 62
    80
100
AcDbCircle
 10
-5.16
 20
-56.935
 30
0.0
 40
0.3
  0
CIRCLE
  5
363
100
AcDbEntity
  8
1
  6
CONTINUOUS
 62
    80
100
AcDbCircle
 10
-3.74
 20
-57.62
 30
0.0
 40
0.3
  0
CIRCLE
  5
364
100
AcDbEntity
  8
1
  6
CONTINUOUS
 62
    80
100
AcDbCircle
 10
-5.16
 20
-52.825
 30
0.0
 40
0.3
  0
CIRCLE
  5
365
100
AcDbEntity
  8
1
  6
CONTINUOUS
 62
    80
100
AcDbCircle
 10
-3.74
 20
-58.99
 30
0.0
 40
0.3
  0
CIRCLE
  5
366
100
AcDbEntity
  8
1
  6
CONTINUOUS
 62
    80
100
AcDbCircle
 10
-5.16
 20
-58.305
 30
0.0
 40
0.3
  0
LINE
  5
367
100
AcDbEntity
  8
1
  6
CONTINUOUS
 62
    50
100
AcDbLine
 10
1.75
 20
-82.5
 30
0.0
 11
2.75
 21
-82.5
 31
0.0
  0
LINE
  5
368
100
AcDbEntity
  8
1
  6
CONTINUOUS
 62
    50
100
AcDbLine
 10
0.5
 20
-83.165
 30
0.0
 11
1.75
 21
-83.5
 31
0.0
  0
LINE
  5
369
100
AcDbEntity
  8
1
  6
CONTINUOUS
 62
    50
100
AcDbLine
 10
0.5
 20
-82.165
 30
0.0
 11
1.75
 21
-82.5
 31
0.0
  0
LINE
  5
36A
100
AcDbEntity
  8
1
  6
CONTINUOUS
 62
    50
100
AcDbLine
 10
0.5
 20
-81.165
 30
0.0
 11
1.75
 21
-81.5
 31
0.0
  0
LINE
  5
36B
100
AcDbEntity
  8
1
  6
CONTINUOUS
 62
    50
100
AcDbLine
 10
1.75
 20
-81.5
 30
0.0
 11
1.75
 21
-83.5
 31
0.0
  0
CIRCLE
  5
36C
100
AcDbEntity
  8
1
  6
CONTINUOUS
 62
   160
100
AcDbCircle
 10
6.15
 20
-52.25
 30
0.0
 40
1.32
  0
ARC
  5
36D
100
AcDbEntity
  8
1
  6
CONTINUOUS
 62
   160
100
AcDbCircle
 10
6.839
 20
-52.25
 30
0.0
 40
0.3
100
AcDbArc
 50
135.0
 51
225.13481
  0
ARC
  5
36E
100
AcDbEntity
  8
1
  6
CONTINUOUS
 62
   160
100
AcDbCircle
 10
6.15
 20
-51.561
 30
0.0
 40
0.3
100
AcDbArc
 50
225.0
 51
315.134813
  0
ARC
  5
36F
100
AcDbEntity
  8
1
  6
CONTINUOUS
 62
   160
100
AcDbCircle
 10
5.461
 20
-52.25
 30
0.0
 40
0.3
100
AcDbArc
 50
314.865186
 51
45.0
  0
ARC
  5
370
100
AcDbEntity
  8
1
  6
CONTINUOUS
 62
   160
100
AcDbCircle
 10
6.15
 20
-52.939
 30
0.0
 40
0.3
100
AcDbArc
 50
44.86518
 51
135.0
  0
CIRCLE
  5
371
100
AcDbEntity
  8
1
  6
CONTINUOUS
 62
   160
100
AcDbCircle
 10
5.461
 20
-52.25
 30
0.0
 40
0.15
  0
LINE
  5
372
100
AcDbEntity
  8
1
  6
CONTINUOUS
 62
   160
100
AcDbLine
 10
6.813
 20
-51.852
 30
0.0
 11
6.628
 21
-52.038
 31
0.0
  0
LINE
  5
373
100
AcDbEntity
  8
1
  6
CONTINUOUS
 62
   160
100
AcDbLine
 10
5.938
 20
-52.728
 30
0.0
 11
5.752
 21
-52.913
 31
0.0
  0
LINE
  5
374
100
AcDbEntity
  8
1
  6
CONTINUOUS
 62
   160
100
AcDbLine
 10
6.628
 20
-52.462
 30
0.0
 11
6.813
 21
-52.648
 31
0.0
  0
LINE
  5
375
100
AcDbEntity
  8
1
  6
CONTINUOUS
 62
   160
100
AcDbLine
 10
5.752
 20
-51.587
 30
0.0
 11
5.938
 21
-51.773
 31
0.0
  0
LINE
  5
376
100
AcDbEntity
  8
1
  6
CONTINUOUS
 62
   160
100
AcDbLine
 10
6.548
 20
-51.587
 30
0.0
 11
6.362
 21
-51.773
 31
0.0
  0
LINE
  5
377
100
AcDbEntity
  8
1
  6
CONTINUOUS
 62
   160
100
AcDbLine
 10
5.673
 20
-52.462
 30
0.0
 11
5.487
 21
-52.648
 31
0.0
  0
LINE
  5
378
100
AcDbEntity
  8
1
  6
CONTINUOUS
 62
   160
100
AcDbLine
 10
6.362
 20
-52.728
 30
0.0
 11
6.548
 21
-52.913
 31
0.0
  0
LINE
  5
379
100
AcDbEntity
  8
1
  6
CONTINUOUS
 62
   160
100
AcDbLine
 10
5.487
 20
-51.852
 30
0.0
 11
5.673
 21
-52.038
 31
0.0
  0
LINE
  5
37A
100
AcDbEntity
  8
1
  6
CONTINUOUS
 62
   160
100
AcDbLine
 10
5.487
 20
-52.648
 30
0.0
 11
5.752
 21
-52.913
 31
0.0
  0
LINE
  5
37B
100
AcDbEntity
  8
1
  6
CONTINUOUS
 62
   160
100
AcDbLine
 10
6.548
 20
-51.587
 30
0.0
 11
6.813
 21
-51.852
 31
0.0
  0
LINE
  5
37C
100
AcDbEntity
  8
1
  6
CONTINUOUS
 62
   160
100
AcDbLine
 10
5.752
 20
-51.587
 30
0.0
 11
5.487
 21
-51.852
 31
0.0
  0
LINE
  5
37D
100
AcDbEntity
  8
1
  6
CONTINUOUS
 62
   160
100
AcDbLine
 10
6.813
 20
-52.648
 30
0.0
 11
6.548
 21
-52.913
 31
0.0
  0
CIRCLE
  5
37E
100
AcDbEntity
  8
1
  6
CONTINUOUS
 62
   160
100
AcDbCircle
 10
-0.1
 20
40.225
 30
0.0
 40
1.32
  0
LINE
  5
37F
100
AcDbEntity
  8
1
  6
CONTINUOUS
 62
   160
100
AcDbLine
 10
0.563
 20
39.827
 30
0.0
 11
0.298
 21
39.562
 31
0.0
  0
LINE
  5
380
100
AcDbEntity
  8
1
  6
CONTINUOUS
 62
   160
100
AcDbLine
 10
-0.498
 20
40.888
 30
0.0
 11
-0.763
 21
40.623
 31
0.0
  0
LINE
  5
381
100
AcDbEntity
  8
1
  6
CONTINUOUS
 62
   160
100
AcDbLine
 10
0.298
 20
40.888
 30
0.0
 11
0.563
 21
40.623
 31
0.0
  0
LINE
  5
382
100
AcDbEntity
  8
1
  6
CONTINUOUS
 62
   160
100
AcDbLine
 10
-0.763
 20
39.827
 30
0.0
 11
-0.498
 21
39.562
 31
0.0
  0
LINE
  5
383
100
AcDbEntity
  8
1
  6
CONTINUOUS
 62
   160
100
AcDbLine
 10
-0.763
 20
40.623
 30
0.0
 11
-0.577
 21
40.437
 31
0.0
  0
LINE
  5
384
100
AcDbEntity
  8
1
  6
CONTINUOUS
 62
   160
100
AcDbLine
 10
0.112
 20
39.747
 30
0.0
 11
0.298
 21
39.562
 31
0.0
  0
LINE
  5
385
100
AcDbEntity
  8
1
  6
CONTINUOUS
 62
   160
100
AcDbLine
 10
-0.577
 20
40.013
 30
0.0
 11
-0.763
 21
39.827
 31
0.0
  0
LINE
  5
386
100
AcDbEntity
  8
1
  6
CONTINUOUS
 62
   160
100
AcDbLine
 10
0.298
 20
40.888
 30
0.0
 11
0.112
 21
40.702
 31
0.0
  0
LINE
  5
387
100
AcDbEntity
  8
1
  6
CONTINUOUS
 62
   160
100
AcDbLine
 10
-0.498
 20
40.888
 30
0.0
 11
-0.312
 21
40.702
 31
0.0
  0
LINE
  5
388
100
AcDbEntity
  8
1
  6
CONTINUOUS
 62
   160
100
AcDbLine
 10
0.378
 20
40.013
 30
0.0
 11
0.563
 21
39.827
 31
0.0
  0
LINE
  5
389
100
AcDbEntity
  8
1
  6
CONTINUOUS
 62
   160
100
AcDbLine
 10
-0.312
 20
39.747
 30
0.0
 11
-0.498
 21
39.562
 31
0.0
  0
LINE
  5
38A
100
AcDbEntity
  8
1
  6
CONTINUOUS
 62
   160
100
AcDbLine
 10
0.563
 20
40.623
 30
0.0
 11
0.378
 21
40.437
 31
0.0
  0
CIRCLE
  5
38B
100
AcDbEntity
  8
1
  6
CONTINUOUS
 62
   160
100
AcDbCircle
 10
-0.789
 20
40.225
 30
0.0
 40
0.15
  0
ARC
  5
38C
100
AcDbEntity
  8
1
  6
CONTINUOUS
 62
   160
100
AcDbCircle
 10
-0.1
 20
39.536
 30
0.0
 40
0.3
100
AcDbArc
 50
44.86518
 51
135.0
  0
ARC
  5
38D
100
AcDbEntity
  8
1
  6
CONTINUOUS
 62
   160
100
AcDbCircle
 10
-0.789
 20
40.225
 30
0.0
 40
0.3
100
AcDbArc
 50
314.865186
 51
45.0
  0
ARC
  5
38E
100
AcDbEntity
  8
1
  6
CONTINUOUS
 62
   160
100
AcDbCircle
 10
-0.1
 20
40.914
 30
0.0
 40
0.3
100
AcDbArc
 50
225.0
 51
315.134813
  0
ARC
  5
38F
100
AcDbEntity
  8
1
  6
CONTINUOUS
 62
   160
100
AcDbCircle
 10
0.589
 20
40.225
 30
0.0
 40
0.3
100
AcDbArc
 50
135.0
 51
225.13481
  0
CIRCLE
  5
390
100
AcDbEntity
  8
1
  6
CONTINUOUS
 62
   160
100
AcDbCircle
 10
-0.1
 20
67.225
 30
0.0
 40
1.32
  0
LINE
  5
391
100
AcDbEntity
  8
1
  6
CONTINUOUS
 62
   160
100
AcDbLine
 10
0.563
 20
66.827
 30
0.0
 11
0.298
 21
66.562
 31
0.0
  0
LINE
  5
392
100
AcDbEntity
  8
1
  6
CONTINUOUS
 62
   160
100
AcDbLine
 10
-0.498
 20
67.888
 30
0.0
 11
-0.763
 21
67.623
 31
0.0
  0
LINE
  5
393
100
AcDbEntity
  8
1
  6
CONTINUOUS
 62
   160
100
AcDbLine
 10
0.298
 20
67.888
 30
0.0
 11
0.563
 21
67.623
 31
0.0
  0
LINE
  5
394
100
AcDbEntity
  8
1
  6
CONTINUOUS
 62
   160
100
AcDbLine
 10
-0.763
 20
66.827
 30
0.0
 11
-0.498
 21
66.562
 31
0.0
  0
LINE
  5
395
100
AcDbEntity
  8
1
  6
CONTINUOUS
 62
   160
100
AcDbLine
 10
-0.763
 20
67.623
 30
0.0
 11
-0.577
 21
67.437
 31
0.0
  0
LINE
  5
396
100
AcDbEntity
  8
1
  6
CONTINUOUS
 62
   160
100
AcDbLine
 10
0.112
 20
66.747
 30
0.0
 11
0.298
 21
66.562
 31
0.0
  0
LINE
  5
397
100
AcDbEntity
  8
1
  6
CONTINUOUS
 62
   160
100
AcDbLine
 10
-0.577
 20
67.013
 30
0.0
 11
-0.763
 21
66.827
 31
0.0
  0
LINE
  5
398
100
AcDbEntity
  8
1
  6
CONTINUOUS
 62
   160
100
AcDbLine
 10
0.298
 20
67.888
 30
0.0
 11
0.112
 21
67.702
 31
0.0
  0
LINE
  5
399
100
AcDbEntity
  8
1
  6
CONTINUOUS
 62
   160
100
AcDbLine
 10
-0.498
 20
67.888
 30
0.0
 11
-0.312
 21
67.702
 31
0.0
  0
LINE
  5
39A
100
AcDbEntity
  8
1
  6
CONTINUOUS
 62
   160
100
AcDbLine
 10
0.378
 20
67.013
 30
0.0
 11
0.563
 21
66.827
 31
0.0
  0
LINE
  5
39B
100
AcDbEntity
  8
1
  6
CONTINUOUS
 62
   160
100
AcDbLine
 10
-0.312
 20
66.747
 30
0.0
 11
-0.498
 21
66.562
 31
0.0
  0
LINE
  5
39C
100
AcDbEntity
  8
1
  6
CONTINUOUS
 62
   160
100
AcDbLine
 10
0.563
 20
67.623
 30
0.0
 11
0.378
 21
67.437
 31
0.0
  0
CIRCLE
  5
39D
100
AcDbEntity
  8
1
  6
CONTINUOUS
 62
   160
100
AcDbCircle
 10
-0.789
 20
67.225
 30
0.0
 40
0.15
  0
ARC
  5
39E
100
AcDbEntity
  8
1
  6
CONTINUOUS
 62
   160
100
AcDbCircle
 10
-0.1
 20
66.536
 30
0.0
 40
0.3
100
AcDbArc
 50
44.86518
 51
135.0
  0
ARC
  5
39F
100
AcDbEntity
  8
1
  6
CONTINUOUS
 62
   160
100
AcDbCircle
 10
-0.789
 20
67.225
 30
0.0
 40
0.3
100
AcDbArc
 50
314.865186
 51
45.0
  0
ARC
  5
3A0
100
AcDbEntity
  8
1
  6
CONTINUOUS
 62
   160
100
AcDbCircle
 10
-0.1
 20
67.914
 30
0.0
 40
0.3
100
AcDbArc
 50
225.0
 51
315.134813
  0
ARC
  5
3A1
100
AcDbEntity
  8
1
  6
CONTINUOUS
 62
   160
100
AcDbCircle
 10
0.589
 20
67.225
 30
0.0
 40
0.3
100
AcDbArc
 50
135.0
 51
225.13481
  0
CIRCLE
  5
3A2
100
AcDbEntity
  8
1
  6
CONTINUOUS
 62
   160
100
AcDbCircle
 10
-0.1
 20
94.225
 30
0.0
 40
1.32
  0
LINE
  5
3A3
100
AcDbEntity
  8
1
  6
CONTINUOUS
 62
   160
100
AcDbLine
 10
0.563
 20
93.827
 30
0.0
 11
0.298
 21
93.562
 31
0.0
  0
LINE
  5
3A4
100
AcDbEntity
  8
1
  6
CONTINUOUS
 62
   160
100
AcDbLine
 10
-0.498
 20
94.888
 30
0.0
 11
-0.763
 21
94.623
 31
0.0
  0
LINE
  5
3A5
100
AcDbEntity
  8
1
  6
CONTINUOUS
 62
   160
100
AcDbLine
 10
0.298
 20
94.888
 30
0.0
 11
0.563
 21
94.623
 31
0.0
  0
LINE
  5
3A6
100
AcDbEntity
  8
1
  6
CONTINUOUS
 62
   160
100
AcDbLine
 10
-0.763
 20
93.827
 30
0.0
 11
-0.498
 21
93.562
 31
0.0
  0
LINE
  5
3A7
100
AcDbEntity
  8
1
  6
CONTINUOUS
 62
   160
100
AcDbLine
 10
-0.763
 20
94.623
 30
0.0
 11
-0.577
 21
94.437
 31
0.0
  0
LINE
  5
3A8
100
AcDbEntity
  8
1
  6
CONTINUOUS
 62
   160
100
AcDbLine
 10
0.112
 20
93.747
 30
0.0
 11
0.298
 21
93.562
 31
0.0
  0
LINE
  5
3A9
100
AcDbEntity
  8
1
  6
CONTINUOUS
 62
   160
100
AcDbLine
 10
-0.577
 20
94.013
 30
0.0
 11
-0.763
 21
93.827
 31
0.0
  0
LINE
  5
3AA
100
AcDbEntity
  8
1
  6
CONTINUOUS
 62
   160
100
AcDbLine
 10
0.298
 20
94.888
 30
0.0
 11
0.112
 21
94.702
 31
0.0
  0
LINE
  5
3AB
100
AcDbEntity
  8
1
  6
CONTINUOUS
 62
   160
100
AcDbLine
 10
-0.498
 20
94.888
 30
0.0
 11
-0.312
 21
94.702
 31
0.0
  0
LINE
  5
3AC
100
AcDbEntity
  8
1
  6
CONTINUOUS
 62
   160
100
AcDbLine
 10
0.378
 20
94.013
 30
0.0
 11
0.563
 21
93.827
 31
0.0
  0
LINE
  5
3AD
100
AcDbEntity
  8
1
  6
CONTINUOUS
 62
   160
100
AcDbLine
 10
-0.312
 20
93.747
 30
0.0
 11
-0.498
 21
93.562
 31
0.0
  0
LINE
  5
3AE
100
AcDbEntity
  8
1
  6
CONTINUOUS
 62
   160
100
AcDbLine
 10
0.563
 20
94.623
 30
0.0
 11
0.378
 21
94.437
 31
0.0
  0
CIRCLE
  5
3AF
100
AcDbEntity
  8
1
  6
CONTINUOUS
 62
   160
100
AcDbCircle
 10
-0.789
 20
94.225
 30
0.0
 40
0.15
  0
ARC
  5
3B0
100
AcDbEntity
  8
1
  6
CONTINUOUS
 62
   160
100
AcDbCircle
 10
-0.1
 20
93.536
 30
0.0
 40
0.3
100
AcDbArc
 50
44.86518
 51
135.0
  0
ARC
  5
3B1
100
AcDbEntity
  8
1
  6
CONTINUOUS
 62
   160
100
AcDbCircle
 10
-0.789
 20
94.225
 30
0.0
 40
0.3
100
AcDbArc
 50
314.865186
 51
45.0
  0
ARC
  5
3B2
100
AcDbEntity
  8
1
  6
CONTINUOUS
 62
   160
100
AcDbCircle
 10
-0.1
 20
94.914
 30
0.0
 40
0.3
100
AcDbArc
 50
225.0
 51
315.134813
  0
ARC
  5
3B3
100
AcDbEntity
  8
1
  6
CONTINUOUS
 62
   160
100
AcDbCircle
 10
0.589
 20
94.225
 30
0.0
 40
0.3
100
AcDbArc
 50
135.0
 51
225.13481
  0
CIRCLE
  5
3B4
100
AcDbEntity
  8
1
  6
CONTINUOUS
 62
     7
100
AcDbCircle
 10
3.65
 20
-74.75
 30
0.0
 40
3.375
  0
CIRCLE
  5
3B5
100
AcDbEntity
  8
1
  6
CONTINUOUS
 62
     7
100
AcDbCircle
 10
3.65
 20
-65.75
 30
0.0
 40
3.375
  0
CIRCLE
  5
3B6
100
AcDbEntity
  8
1
  6
CONTINUOUS
 62
     7
100
AcDbCircle
 10
3.65
 20
-56.75
 30
0.0
 40
3.375
  0
CIRCLE
  5
3B7
100
AcDbEntity
  8
1
  6
CONTINUOUS
 62
     7
100
AcDbCircle
 10
3.65
 20
-47.75
 30
0.0
 40
3.375
  0
CIRCLE
  5
3B8
100
AcDbEntity
  8
1
  6
CONTINUOUS
 62
     7
100
AcDbCircle
 10
-4.35
 20
25.75
 30
0.0
 40
3.375
  0
CIRCLE
  5
3B9
100
AcDbEntity
  8
1
  6
CONTINUOUS
 62
     7
100
AcDbCircle
 10
4.15
 20
25.75
 30
0.0
 40
3.375
  0
CIRCLE
  5
3BA
100
AcDbEntity
  8
1
  6
CONTINUOUS
 62
     7
100
AcDbCircle
 10
-4.35
 20
34.75
 30
0.0
 40
3.375
  0
CIRCLE
  5
3BB
100
AcDbEntity
  8
1
  6
CONTINUOUS
 62
     7
100
AcDbCircle
 10
4.15
 20
34.75
 30
0.0
 40
3.375
  0
CIRCLE
  5
3BC
100
AcDbEntity
  8
1
  6
CONTINUOUS
 62
     7
100
AcDbCircle
 10
-4.35
 20
43.75
 30
0.0
 40
3.375
  0
CIRCLE
  5
3BD
100
AcDbEntity
  8
1
  6
CONTINUOUS
 62
     7
100
AcDbCircle
 10
4.15
 20
43.75
 30
0.0
 40
3.375
  0
CIRCLE
  5
3BE
100
AcDbEntity
  8
1
  6
CONTINUOUS
 62
     7
100
AcDbCircle
 10
-4.35
 20
52.75
 30
0.0
 40
3.375
  0
CIRCLE
  5
3BF
100
AcDbEntity
  8
1
  6
CONTINUOUS
 62
     7
100
AcDbCircle
 10
4.15
 20
52.75
 30
0.0
 40
3.375
  0
CIRCLE
  5
3C0
100
AcDbEntity
  8
1
  6
CONTINUOUS
 62
     7
100
AcDbCircle
 10
-4.35
 20
61.75
 30
0.0
 40
3.375
  0
CIRCLE
  5
3C1
100
AcDbEntity
  8
1
  6
CONTINUOUS
 62
     7
100
AcDbCircle
 10
4.15
 20
61.75
 30
0.0
 40
3.375
  0
CIRCLE
  5
3C2
100
AcDbEntity
  8
1
  6
CONTINUOUS
 62
     7
100
AcDbCircle
 10
-4.35
 20
70.75
 30
0.0
 40
3.375
  0
CIRCLE
  5
3C3
100
AcDbEntity
  8
1
  6
CONTINUOUS
 62
     7
100
AcDbCircle
 10
4.15
 20
70.75
 30
0.0
 40
3.375
  0
CIRCLE
  5
3C4
100
AcDbEntity
  8
1
  6
CONTINUOUS
 62
     7
100
AcDbCircle
 10
-4.35
 20
79.75
 30
0.0
 40
3.375
  0
CIRCLE
  5
3C5
100
AcDbEntity
  8
1
  6
CONTINUOUS
 62
     7
100
AcDbCircle
 10
4.15
 20
79.75
 30
0.0
 40
3.375
  0
CIRCLE
  5
3C6
100
AcDbEntity
  8
1
  6
CONTINUOUS
 62
     7
100
AcDbCircle
 10
-4.35
 20
88.75
 30
0.0
 40
3.375
  0
CIRCLE
  5
3C7
100
AcDbEntity
  8
1
  6
CONTINUOUS
 62
     7
100
AcDbCircle
 10
4.15
 20
88.75
 30
0.0
 40
3.375
  0
CIRCLE
  5
3C8
100
AcDbEntity
  8
1
  6
CONTINUOUS
 62
     7
100
AcDbCircle
 10
-4.35
 20
97.75
 30
0.0
 40
3.375
  0
CIRCLE
  5
3C9
100
AcDbEntity
  8
1
  6
CONTINUOUS
 62
     7
100
AcDbCircle
 10
4.15
 20
97.75
 30
0.0
 40
3.375
  0
LINE
  5
3CA
100
AcDbEntity
  8
1
  6
CONTINUOUS
 62
    80
100
AcDbLine
 10
-5.172
 20
-66.745
 30
0.0
 11
-3.728
 21
-66.745
 31
0.0
  0
LINE
  5
3CB
100
AcDbEntity
  8
1
  6
CONTINUOUS
 62
    80
100
AcDbLine
 10
-3.73
 20
-45.75
 30
0.0
 11
-5.173
 21
-45.75
 31
0.0
  0
LINE
  5
3CC
100
AcDbEntity
  8
1
  6
CONTINUOUS
 62
     7
100
AcDbLine
 10
167.02
 20
-137.4995
 30
0.0
 11
157.98
 21
-137.4995
 31
0.0
  0
ARC
  5
3CD
100
AcDbEntity
  8
1
  6
CONTINUOUS
 62
     7
100
AcDbCircle
 10
167.02
 20
-137.2495
 30
0.0
 40
0.25
100
AcDbArc
 50
270.0
 51
355.17924
  0
ARC
  5
3CE
100
AcDbEntity
  8
1
  6
CONTINUOUS
 62
     7
100
AcDbCircle
 10
167.02
 20
-137.2495
 30
0.0
 40
0.25
100
AcDbArc
 50
270.0
 51
355.17924
  0
ARC
  5
3CF
100
AcDbEntity
  8
1
  6
CONTINUOUS
 62
     7
100
AcDbCircle
 10
157.98
 20
-137.25
 30
0.0
 40
0.25
100
AcDbArc
 50
184.70651
 51
270.0
  0
ARC
  5
3D0
100
AcDbEntity
  8
1
  6
CONTINUOUS
 62
     7
100
AcDbCircle
 10
157.98
 20
-137.2495
 30
0.0
 40
0.25
100
AcDbArc
 50
184.82077
 51
270.0
  0
ARC
  5
3D1
100
AcDbEntity
  8
1
  6
CONTINUOUS
 62
     7
100
AcDbCircle
 10
82.52025
 20
-137.2495
 30
0.0
 40
0.25
100
AcDbArc
 50
270.0
 51
355.17923
  0
ARC
  5
3D2
100
AcDbEntity
  8
1
  6
CONTINUOUS
 62
     7
100
AcDbCircle
 10
82.52025
 20
-137.25
 30
0.0
 40
0.25
100
AcDbArc
 50
270.0
 51
355.29349
  0
ARC
  5
3D3
100
AcDbEntity
  8
1
  6
CONTINUOUS
 62
     7
100
AcDbCircle
 10
73.48025
 20
-137.2495
 30
0.0
 40
0.25
100
AcDbArc
 50
184.82076
 51
270.0
  0
ARC
  5
3D4
100
AcDbEntity
  8
1
  6
CONTINUOUS
 62
     7
100
AcDbCircle
 10
73.48025
 20
-137.2495
 30
0.0
 40
0.25
100
AcDbArc
 50
184.82076
 51
270.0
  0
LINE
  5
3D5
100
AcDbEntity
  8
1
  6
CONTINUOUS
 62
     7
100
AcDbLine
 10
73.48025
 20
-137.4995
 30
0.0
 11
82.52025
 21
-137.4995
 31
0.0
  0
LINE
  5
3D6
100
AcDbEntity
  8
1
  6
CONTINUOUS
 62
     7
100
AcDbLine
 10
167.5
 20
-134.4995
 30
0.0
 11
167.269
 21
-137.2705
 31
0.0
  0
LINE
  5
3D7
100
AcDbEntity
  8
1
  6
CONTINUOUS
 62
     7
100
AcDbLine
 10
157.731
 20
-137.2705
 30
0.0
 11
157.5
 21
-134.4995
 31
0.0
  0
LINE
  5
3D8
100
AcDbEntity
  8
1
  6
CONTINUOUS
 62
     7
100
AcDbLine
 10
73.00025
 20
-134.4995
 30
0.0
 11
73.23125
 21
-137.2705
 31
0.0
  0
LINE
  5
3D9
100
AcDbEntity
  8
1
  6
CONTINUOUS
 62
     7
100
AcDbLine
 10
82.76925
 20
-137.2705
 30
0.0
 11
83.00025
 21
-134.4995
 31
0.0
  0
LINE
  5
3DA
100
AcDbEntity
  8
1
  6
CONTINUOUS
 62
     7
100
AcDbLine
 10
167.5
 20
169.4995
 30
0.0
 11
167.269
 21
172.2705
 31
0.0
  0
LINE
  5
3DB
100
AcDbEntity
  8
1
  6
CONTINUOUS
 62
     7
100
AcDbLine
 10
157.731
 20
172.2705
 30
0.0
 11
157.5
 21
169.4995
 31
0.0
  0
LINE
  5
3DC
100
AcDbEntity
  8
1
  6
CONTINUOUS
 62
     7
100
AcDbLine
 10
73.00025
 20
169.4995
 30
0.0
 11
73.23125
 21
172.2705
 31
0.0
  0
LINE
  5
3DD
100
AcDbEntity
  8
1
  6
CONTINUOUS
 62
     7
100
AcDbLine
 10
82.76925
 20
172.2705
 30
0.0
 11
83.00025
 21
169.4995
 31
0.0
  0
LINE
  5
3DE
100
AcDbEntity
  8
1
  6
CONTINUOUS
 62
     7
100
AcDbLine
 10
73.48025
 20
172.4995
 30
0.0
 11
82.52025
 21
172.4995
 31
0.0
  0
ARC
  5
3DF
100
AcDbEntity
  8
1
  6
CONTINUOUS
 62
     7
100
AcDbCircle
 10
73.48025
 20
172.2495
 30
0.0
 40
0.25
100
AcDbArc
 50
90.0
 51
175.17924
  0
ARC
  5
3E0
100
AcDbEntity
  8
1
  6
CONTINUOUS
 62
     7
100
AcDbCircle
 10
73.48025
 20
172.2495
 30
0.0
 40
0.25
100
AcDbArc
 50
90.0
 51
175.17924
  0
ARC
  5
3E1
100
AcDbEntity
  8
1
  6
CONTINUOUS
 62
     7
100
AcDbCircle
 10
82.52025
 20
172.25
 30
0.0
 40
0.25
100
AcDbArc
 50
4.70651
 51
90.0
  0
ARC
  5
3E2
100
AcDbEntity
  8
1
  6
CONTINUOUS
 62
     7
100
AcDbCircle
 10
82.52025
 20
172.2495
 30
0.0
 40
0.25
100
AcDbArc
 50
4.82077
 51
90.0
  0
ARC
  5
3E3
100
AcDbEntity
  8
1
  6
CONTINUOUS
 62
     7
100
AcDbCircle
 10
157.98
 20
172.2495
 30
0.0
 40
0.25
100
AcDbArc
 50
90.0
 51
175.17923
  0
ARC
  5
3E4
100
AcDbEntity
  8
1
  6
CONTINUOUS
 62
     7
100
AcDbCircle
 10
157.98
 20
172.25
 30
0.0
 40
0.25
100
AcDbArc
 50
90.0
 51
175.29349
  0
ARC
  5
3E5
100
AcDbEntity
  8
1
  6
CONTINUOUS
 62
     7
100
AcDbCircle
 10
167.02
 20
172.2495
 30
0.0
 40
0.25
100
AcDbArc
 50
4.82076
 51
90.0
  0
ARC
  5
3E6
100
AcDbEntity
  8
1
  6
CONTINUOUS
 62
     7
100
AcDbCircle
 10
167.02
 20
172.2495
 30
0.0
 40
0.25
100
AcDbArc
 50
4.82076
 51
90.0
  0
LINE
  5
3E7
100
AcDbEntity
  8
1
  6
CONTINUOUS
 62
     7
100
AcDbLine
 10
167.02
 20
172.4995
 30
0.0
 11
157.98
 21
172.4995
 31
0.0
  0
LINE
  5
3E8
100
AcDbEntity
  8
1
  6
CONTINUOUS
 62
     7
100
AcDbLine
 10
240.0
 20
-62.9805
 30
0.0
 11
240.0
 21
-72.0205
 31
0.0
  0
ARC
  5
3E9
100
AcDbEntity
  8
1
  6
CONTINUOUS
 62
     7
100
AcDbCircle
 10
239.7505
 20
-72.0205
 30
0.0
 40
0.25
100
AcDbArc
 50
274.70651
 51
0.0
  0
ARC
  5
3EA
100
AcDbEntity
  8
1
  6
CONTINUOUS
 62
     7
100
AcDbCircle
 10
239.75
 20
-72.0205
 30
0.0
 40
0.25
100
AcDbArc
 50
274.82077
 51
0.0
  0
ARC
  5
3EB
100
AcDbEntity
  8
1
  6
CONTINUOUS
 62
     7
100
AcDbCircle
 10
239.75
 20
-62.9805
 30
0.0
 40
0.25
100
AcDbArc
 50
0.0
 51
85.17924
  0
ARC
  5
3EC
100
AcDbEntity
  8
1
  6
CONTINUOUS
 62
     7
100
AcDbCircle
 10
239.75
 20
-62.9805
 30
0.0
 40
0.25
100
AcDbArc
 50
0.0
 51
85.17924
  0
ARC
  5
3ED
100
AcDbEntity
  8
1
  6
CONTINUOUS
 62
     7
100
AcDbCircle
 10
239.75
 20
97.9805
 30
0.0
 40
0.25
100
AcDbArc
 50
274.82076
 51
0.0
  0
ARC
  5
3EE
100
AcDbEntity
  8
1
  6
CONTINUOUS
 62
     7
100
AcDbCircle
 10
239.75
 20
97.9805
 30
0.0
 40
0.25
100
AcDbArc
 50
274.82076
 51
0.0
  0
ARC
  5
3EF
100
AcDbEntity
  8
1
  6
CONTINUOUS
 62
     7
100
AcDbCircle
 10
239.75
 20
107.0205
 30
0.0
 40
0.25
100
AcDbArc
 50
0.0
 51
85.17923
  0
ARC
  5
3F0
100
AcDbEntity
  8
1
  6
CONTINUOUS
 62
     7
100
AcDbCircle
 10
239.7505
 20
107.0205
 30
0.0
 40
0.25
100
AcDbArc
 50
0.0
 51
85.29349
  0
LINE
  5
3F1
100
AcDbEntity
  8
1
  6
CONTINUOUS
 62
     7
100
AcDbLine
 10
240.0
 20
97.9805
 30
0.0
 11
240.0
 21
107.0205
 31
0.0
  0
LINE
  5
3F2
100
AcDbEntity
  8
1
  6
CONTINUOUS
 62
     7
100
AcDbLine
 10
239.771
 20
-72.2695
 30
0.0
 11
237.0
 21
-72.5005
 31
0.0
  0
LINE
  5
3F3
100
AcDbEntity
  8
1
  6
CONTINUOUS
 62
     7
100
AcDbLine
 10
237.0
 20
-62.5005
 30
0.0
 11
239.771
 21
-62.7315
 31
0.0
  0
LINE
  5
3F4
100
AcDbEntity
  8
1
  6
CONTINUOUS
 62
     7
100
AcDbLine
 10
239.771
 20
107.2695
 30
0.0
 11
237.0
 21
107.5005
 31
0.0
  0
LINE
  5
3F5
100
AcDbEntity
  8
1
  6
CONTINUOUS
 62
     7
100
AcDbLine
 10
237.0
 20
97.5005
 30
0.0
 11
239.771
 21
97.7315
 31
0.0
  0
CIRCLE
  5
3F6
100
AcDbEntity
  8
1
  6
CONTINUOUS
 62
   160
100
AcDbCircle
 10
173.999148
 20
-116.499844
 30
0.0
 40
2.0
  0
CIRCLE
  5
3F7
100
AcDbEntity
  8
1
  6
CONTINUOUS
 62
   160
100
AcDbCircle
 10
173.999148
 20
-116.499844
 30
0.0
 40
1.8
  0
ARC
  5
3F8
100
AcDbEntity
  8
1
  6
CONTINUOUS
 62
   160
100
AcDbCircle
 10
173.999154
 20
-115.580844
 30
0.0
 40
0.4
100
AcDbArc
 50
224.898206
 51
315.101016
  0
ARC
  5
3F9
100
AcDbEntity
  8
1
  6
CONTINUOUS
 62
   160
100
AcDbCircle
 10
173.080148
 20
-116.499837
 30
0.0
 40
0.4
100
AcDbArc
 50
-45.101794
 51
45.101015
  0
ARC
  5
3FA
100
AcDbEntity
  8
1
  6
CONTINUOUS
 62
   160
100
AcDbCircle
 10
173.999141
 20
-117.418844
 30
0.0
 40
0.4
100
AcDbArc
 50
44.999606
 51
134.999606
  0
ARC
  5
3FB
100
AcDbEntity
  8
1
  6
CONTINUOUS
 62
   160
100
AcDbCircle
 10
174.918148
 20
-116.49985
 30
0.0
 40
0.4
100
AcDbArc
 50
134.999606
 51
224.999606
  0
CIRCLE
  5
3FC
100
AcDbEntity
  8
1
  6
CONTINUOUS
 62
   160
100
AcDbCircle
 10
173.998141
 20
-117.418844
 30
0.0
 40
0.2
  0
LINE
  5
3FD
100
AcDbEntity
  8
1
  6
CONTINUOUS
 62
   160
100
AcDbLine
 10
173.716152
 20
-115.862842
 30
0.0
 11
173.468154
 21
-115.61584
 31
0.0
  0
LINE
  5
3FE
100
AcDbEntity
  8
1
  6
CONTINUOUS
 62
   160
100
AcDbLine
 10
174.883144
 20
-117.02985
 30
0.0
 11
174.635146
 21
-116.782848
 31
0.0
  0
LINE
  5
3FF
100
AcDbEntity
  8
1
  6
CONTINUOUS
 62
   160
100
AcDbLine
 10
174.282152
 20
-115.862846
 30
0.0
 11
174.529154
 21
-115.615847
 31
0.0
  0
LINE
  5
400
100
AcDbEntity
  8
1
  6
CONTINUOUS
 62
   160
100
AcDbLine
 10
173.115144
 20
-117.029838
 30
0.0
 11
173.362146
 21
-116.782839
 31
0.0
  0
LINE
  5
401
100
AcDbEntity
  8
1
  6
CONTINUOUS
 62
   160
100
AcDbLine
 10
173.36215
 20
-116.216839
 30
0.0
 11
173.115151
 21
-115.968838
 31
0.0
  0
LINE
  5
402
100
AcDbEntity
  8
1
  6
CONTINUOUS
 62
   160
100
AcDbLine
 10
174.529142
 20
-117.383847
 30
0.0
 11
174.282143
 21
-117.135846
 31
0.0
  0
LINE
  5
403
100
AcDbEntity
  8
1
  6
CONTINUOUS
 62
   160
100
AcDbLine
 10
174.63515
 20
-116.216848
 30
0.0
 11
174.883151
 21
-115.96885
 31
0.0
  0
LINE
  5
404
100
AcDbEntity
  8
1
  6
CONTINUOUS
 62
   160
100
AcDbLine
 10
173.468142
 20
-117.38384
 30
0.0
 11
173.716143
 21
-117.135842
 31
0.0
  0
LINE
  5
405
100
AcDbEntity
  8
1
  6
CONTINUOUS
 62
   160
100
AcDbLine
 10
174.529142
 20
-117.383847
 30
0.0
 11
174.883144
 21
-117.02985
 31
0.0
  0
LINE
  5
406
100
AcDbEntity
  8
1
  6
CONTINUOUS
 62
   160
100
AcDbLine
 10
173.115151
 20
-115.968838
 30
0.0
 11
173.468154
 21
-115.61584
 31
0.0
  0
LINE
  5
407
100
AcDbEntity
  8
1
  6
CONTINUOUS
 62
   160
100
AcDbLine
 10
173.468142
 20
-117.38384
 30
0.0
 11
173.115144
 21
-117.029838
 31
0.0
  0
LINE
  5
408
100
AcDbEntity
  8
1
  6
CONTINUOUS
 62
   160
100
AcDbLine
 10
174.883151
 20
-115.96885
 30
0.0
 11
174.529154
 21
-115.615847
 31
0.0
  0
CIRCLE
  5
409
100
AcDbEntity
  8
1
  6
CONTINUOUS
 62
   160
100
AcDbCircle
 10
173.999302
 20
-130.499844
 30
0.0
 40
2.0
  0
CIRCLE
  5
40A
100
AcDbEntity
  8
1
  6
CONTINUOUS
 62
   160
100
AcDbCircle
 10
173.999302
 20
-130.499844
 30
0.0
 40
1.8
  0
ARC
  5
40B
100
AcDbEntity
  8
1
  6
CONTINUOUS
 62
   160
100
AcDbCircle
 10
173.999308
 20
-129.580844
 30
0.0
 40
0.4
100
AcDbArc
 50
224.898206
 51
315.101016
  0
ARC
  5
40C
100
AcDbEntity
  8
1
  6
CONTINUOUS
 62
   160
100
AcDbCircle
 10
173.080302
 20
-130.499837
 30
0.0
 40
0.4
100
AcDbArc
 50
-45.101794
 51
45.101015
  0
ARC
  5
40D
100
AcDbEntity
  8
1
  6
CONTINUOUS
 62
   160
100
AcDbCircle
 10
173.999295
 20
-131.418844
 30
0.0
 40
0.4
100
AcDbArc
 50
44.999606
 51
134.999606
  0
ARC
  5
40E
100
AcDbEntity
  8
1
  6
CONTINUOUS
 62
   160
100
AcDbCircle
 10
174.918302
 20
-130.49985
 30
0.0
 40
0.4
100
AcDbArc
 50
134.999606
 51
224.999606
  0
CIRCLE
  5
40F
100
AcDbEntity
  8
1
  6
CONTINUOUS
 62
   160
100
AcDbCircle
 10
173.998295
 20
-131.418844
 30
0.0
 40
0.2
  0
LINE
  5
410
100
AcDbEntity
  8
1
  6
CONTINUOUS
 62
   160
100
AcDbLine
 10
173.716306
 20
-129.862842
 30
0.0
 11
173.468308
 21
-129.61584
 31
0.0
  0
LINE
  5
411
100
AcDbEntity
  8
1
  6
CONTINUOUS
 62
   160
100
AcDbLine
 10
174.883298
 20
-131.02985
 30
0.0
 11
174.6353
 21
-130.782848
 31
0.0
  0
LINE
  5
412
100
AcDbEntity
  8
1
  6
CONTINUOUS
 62
   160
100
AcDbLine
 10
174.282306
 20
-129.862846
 30
0.0
 11
174.529308
 21
-129.615847
 31
0.0
  0
LINE
  5
413
100
AcDbEntity
  8
1
  6
CONTINUOUS
 62
   160
100
AcDbLine
 10
173.115298
 20
-131.029838
 30
0.0
 11
173.3623
 21
-130.782839
 31
0.0
  0
LINE
  5
414
100
AcDbEntity
  8
1
  6
CONTINUOUS
 62
   160
100
AcDbLine
 10
173.362304
 20
-130.216839
 30
0.0
 11
173.115305
 21
-129.968838
 31
0.0
  0
LINE
  5
415
100
AcDbEntity
  8
1
  6
CONTINUOUS
 62
   160
100
AcDbLine
 10
174.529296
 20
-131.383847
 30
0.0
 11
174.282297
 21
-131.135846
 31
0.0
  0
LINE
  5
416
100
AcDbEntity
  8
1
  6
CONTINUOUS
 62
   160
100
AcDbLine
 10
174.635304
 20
-130.216848
 30
0.0
 11
174.883305
 21
-129.96885
 31
0.0
  0
LINE
  5
417
100
AcDbEntity
  8
1
  6
CONTINUOUS
 62
   160
100
AcDbLine
 10
173.468296
 20
-131.38384
 30
0.0
 11
173.716297
 21
-131.135842
 31
0.0
  0
LINE
  5
418
100
AcDbEntity
  8
1
  6
CONTINUOUS
 62
   160
100
AcDbLine
 10
174.529296
 20
-131.383847
 30
0.0
 11
174.883298
 21
-131.02985
 31
0.0
  0
LINE
  5
419
100
AcDbEntity
  8
1
  6
CONTINUOUS
 62
   160
100
AcDbLine
 10
173.115305
 20
-129.968838
 30
0.0
 11
173.468308
 21
-129.61584
 31
0.0
  0
LINE
  5
41A
100
AcDbEntity
  8
1
  6
CONTINUOUS
 62
   160
100
AcDbLine
 10
173.468296
 20
-131.38384
 30
0.0
 11
173.115298
 21
-131.029838
 31
0.0
  0
LINE
  5
41B
100
AcDbEntity
  8
1
  6
CONTINUOUS
 62
   160
100
AcDbLine
 10
174.883305
 20
-129.96885
 30
0.0
 11
174.529308
 21
-129.615847
 31
0.0
  0
LINE
  5
41C
100
AcDbEntity
  8
1
  6
CONTINUOUS
 62
   160
100
AcDbLine
 10
63.162304
 20
-130.101168
 30
0.0
 11
62.897306
 21
-129.835166
 31
0.0
  0
LINE
  5
41D
100
AcDbEntity
  8
1
  6
CONTINUOUS
 62
   160
100
AcDbLine
 10
62.101297
 20
-131.16116
 30
0.0
 11
61.836299
 21
-130.896159
 31
0.0
  0
LINE
  5
41E
100
AcDbEntity
  8
1
  6
CONTINUOUS
 62
   160
100
AcDbLine
 10
61.836304
 20
-130.101159
 30
0.0
 11
62.101306
 21
-129.83516
 31
0.0
  0
LINE
  5
41F
100
AcDbEntity
  8
1
  6
CONTINUOUS
 62
   160
100
AcDbLine
 10
62.897297
 20
-131.161166
 30
0.0
 11
63.162299
 21
-130.896168
 31
0.0
  0
LINE
  5
420
100
AcDbEntity
  8
1
  6
CONTINUOUS
 62
   160
100
AcDbLine
 10
62.101297
 20
-131.16116
 30
0.0
 11
62.287298
 21
-130.976162
 31
0.0
  0
LINE
  5
421
100
AcDbEntity
  8
1
  6
CONTINUOUS
 62
   160
100
AcDbLine
 10
62.976303
 20
-130.286167
 30
0.0
 11
63.162304
 21
-130.101168
 31
0.0
  0
LINE
  5
422
100
AcDbEntity
  8
1
  6
CONTINUOUS
 62
   160
100
AcDbLine
 10
62.897297
 20
-131.161166
 30
0.0
 11
62.711298
 21
-130.976165
 31
0.0
  0
LINE
  5
423
100
AcDbEntity
  8
1
  6
CONTINUOUS
 62
   160
100
AcDbLine
 10
62.022303
 20
-130.28616
 30
0.0
 11
61.836304
 21
-130.101159
 31
0.0
  0
LINE
  5
424
100
AcDbEntity
  8
1
  6
CONTINUOUS
 62
   160
100
AcDbLine
 10
61.836299
 20
-130.896159
 30
0.0
 11
62.0223
 21
-130.71016
 31
0.0
  0
LINE
  5
425
100
AcDbEntity
  8
1
  6
CONTINUOUS
 62
   160
100
AcDbLine
 10
62.711305
 20
-130.021165
 30
0.0
 11
62.897306
 21
-129.835166
 31
0.0
  0
LINE
  5
426
100
AcDbEntity
  8
1
  6
CONTINUOUS
 62
   160
100
AcDbLine
 10
63.162299
 20
-130.896168
 30
0.0
 11
62.9763
 21
-130.710167
 31
0.0
  0
LINE
  5
427
100
AcDbEntity
  8
1
  6
CONTINUOUS
 62
   160
100
AcDbLine
 10
62.287305
 20
-130.021162
 30
0.0
 11
62.101306
 21
-129.83516
 31
0.0
  0
CIRCLE
  5
428
100
AcDbEntity
  8
1
  6
CONTINUOUS
 62
   160
100
AcDbCircle
 10
62.499297
 20
-131.188163
 30
0.0
 40
0.15
  0
ARC
  5
429
100
AcDbEntity
  8
1
  6
CONTINUOUS
 62
   160
100
AcDbCircle
 10
63.188302
 20
-130.498168
 30
0.0
 40
0.3
100
AcDbArc
 50
134.999606
 51
224.999606
  0
ARC
  5
42A
100
AcDbEntity
  8
1
  6
CONTINUOUS
 62
   160
100
AcDbCircle
 10
62.499297
 20
-131.188163
 30
0.0
 40
0.3
100
AcDbArc
 50
44.999606
 51
134.999606
  0
ARC
  5
42B
100
AcDbEntity
  8
1
  6
CONTINUOUS
 62
   160
100
AcDbCircle
 10
61.810302
 20
-130.498158
 30
0.0
 40
0.3
100
AcDbArc
 50
-45.000394
 51
44.999606
  0
ARC
  5
42C
100
AcDbEntity
  8
1
  6
CONTINUOUS
 62
   160
100
AcDbCircle
 10
62.499306
 20
-129.809163
 30
0.0
 40
0.3
100
AcDbArc
 50
224.999606
 51
314.999606
  0
CIRCLE
  5
42D
100
AcDbEntity
  8
1
  6
CONTINUOUS
 62
   160
100
AcDbCircle
 10
62.499302
 20
-130.498163
 30
0.0
 40
1.35
  0
CIRCLE
  5
42E
100
AcDbEntity
  8
1
  6
CONTINUOUS
 62
   160
100
AcDbCircle
 10
62.499302
 20
-130.498163
 30
0.0
 40
1.5
  0
CIRCLE
  5
42F
100
AcDbEntity
  8
1
  6
CONTINUOUS
 62
   160
100
AcDbCircle
 10
118.248802
 20
-130.499503
 30
0.0
 40
1.5
  0
CIRCLE
  5
430
100
AcDbEntity
  8
1
  6
CONTINUOUS
 62
   160
100
AcDbCircle
 10
118.248802
 20
-130.499503
 30
0.0
 40
1.35
  0
ARC
  5
431
100
AcDbEntity
  8
1
  6
CONTINUOUS
 62
   160
100
AcDbCircle
 10
118.248806
 20
-129.810503
 30
0.0
 40
0.3
100
AcDbArc
 50
224.999606
 51
314.999606
  0
ARC
  5
432
100
AcDbEntity
  8
1
  6
CONTINUOUS
 62
   160
100
AcDbCircle
 10
117.559802
 20
-130.499499
 30
0.0
 40
0.3
100
AcDbArc
 50
-45.000394
 51
44.999606
  0
ARC
  5
433
100
AcDbEntity
  8
1
  6
CONTINUOUS
 62
   160
100
AcDbCircle
 10
118.248797
 20
-131.189503
 30
0.0
 40
0.3
100
AcDbArc
 50
44.999606
 51
134.999606
  0
ARC
  5
434
100
AcDbEntity
  8
1
  6
CONTINUOUS
 62
   160
100
AcDbCircle
 10
118.937802
 20
-130.499508
 30
0.0
 40
0.3
100
AcDbArc
 50
134.999606
 51
224.999606
  0
CIRCLE
  5
435
100
AcDbEntity
  8
1
  6
CONTINUOUS
 62
   160
100
AcDbCircle
 10
118.248797
 20
-131.189503
 30
0.0
 40
0.15
  0
LINE
  5
436
100
AcDbEntity
  8
1
  6
CONTINUOUS
 62
   160
100
AcDbLine
 10
118.036805
 20
-130.022502
 30
0.0
 11
117.850806
 21
-129.836501
 31
0.0
  0
LINE
  5
437
100
AcDbEntity
  8
1
  6
CONTINUOUS
 62
   160
100
AcDbLine
 10
118.911799
 20
-130.897508
 30
0.0
 11
118.7258
 21
-130.711507
 31
0.0
  0
LINE
  5
438
100
AcDbEntity
  8
1
  6
CONTINUOUS
 62
   160
100
AcDbLine
 10
118.460805
 20
-130.022505
 30
0.0
 11
118.646806
 21
-129.836506
 31
0.0
  0
LINE
  5
439
100
AcDbEntity
  8
1
  6
CONTINUOUS
 62
   160
100
AcDbLine
 10
117.585799
 20
-130.897499
 30
0.0
 11
117.7718
 21
-130.7115
 31
0.0
  0
LINE
  5
43A
100
AcDbEntity
  8
1
  6
CONTINUOUS
 62
   160
100
AcDbLine
 10
117.771803
 20
-130.2875
 30
0.0
 11
117.585804
 21
-130.102499
 31
0.0
  0
LINE
  5
43B
100
AcDbEntity
  8
1
  6
CONTINUOUS
 62
   160
100
AcDbLine
 10
118.646797
 20
-131.162506
 30
0.0
 11
118.460798
 21
-130.977505
 31
0.0
  0
LINE
  5
43C
100
AcDbEntity
  8
1
  6
CONTINUOUS
 62
   160
100
AcDbLine
 10
118.725803
 20
-130.287507
 30
0.0
 11
118.911804
 21
-130.102508
 31
0.0
  0
LINE
  5
43D
100
AcDbEntity
  8
1
  6
CONTINUOUS
 62
   160
100
AcDbLine
 10
117.850797
 20
-131.162501
 30
0.0
 11
118.036798
 21
-130.977502
 31
0.0
  0
LINE
  5
43E
100
AcDbEntity
  8
1
  6
CONTINUOUS
 62
   160
100
AcDbLine
 10
118.646797
 20
-131.162506
 30
0.0
 11
118.911799
 21
-130.897508
 31
0.0
  0
LINE
  5
43F
100
AcDbEntity
  8
1
  6
CONTINUOUS
 62
   160
100
AcDbLine
 10
117.585804
 20
-130.102499
 30
0.0
 11
117.850806
 21
-129.836501
 31
0.0
  0
LINE
  5
440
100
AcDbEntity
  8
1
  6
CONTINUOUS
 62
   160
100
AcDbLine
 10
117.850797
 20
-131.162501
 30
0.0
 11
117.585799
 21
-130.897499
 31
0.0
  0
LINE
  5
441
100
AcDbEntity
  8
1
  6
CONTINUOUS
 62
   160
100
AcDbLine
 10
118.911804
 20
-130.102508
 30
0.0
 11
118.646806
 21
-129.836506
 31
0.0
  0
LINE
  5
442
100
AcDbEntity
  8
1
  6
CONTINUOUS
 62
   160
100
AcDbLine
 10
61.097028
 20
-87.499654
 30
0.0
 11
63.902028
 21
-87.499673
 31
0.0
  0
ARC
  5
443
100
AcDbEntity
  8
1
  6
CONTINUOUS
 62
   160
100
AcDbCircle
 10
62.499545
 20
-85.061038
 30
0.0
 40
3.436125
100
AcDbArc
 50
245.910136
 51
294.089066
  0
ARC
  5
444
100
AcDbEntity
  8
1
  6
CONTINUOUS
 62
   160
100
AcDbCircle
 10
61.658026
 20
-87.848782
 30
0.0
 40
0.66075
100
AcDbArc
 50
148.103756
 51
211.894686
  0
ARC
  5
445
100
AcDbEntity
  8
1
  6
CONTINUOUS
 62
   160
100
AcDbCircle
 10
63.341026
 20
-87.848794
 30
0.0
 40
0.66075
100
AcDbArc
 50
328.104516
 51
31.895456
  0
LINE
  5
446
100
AcDbEntity
  8
1
  6
CONTINUOUS
 62
   160
100
AcDbLine
 10
116.846528
 20
-87.499994
 30
0.0
 11
119.651528
 21
-87.500013
 31
0.0
  0
ARC
  5
447
100
AcDbEntity
  8
1
  6
CONTINUOUS
 62
   160
100
AcDbCircle
 10
118.249045
 20
-85.061378
 30
0.0
 40
3.436125
100
AcDbArc
 50
245.910136
 51
294.089066
  0
ARC
  5
448
100
AcDbEntity
  8
1
  6
CONTINUOUS
 62
   160
100
AcDbCircle
 10
117.407526
 20
-87.849123
 30
0.0
 40
0.66075
100
AcDbArc
 50
148.103756
 51
211.894686
  0
ARC
  5
449
100
AcDbEntity
  8
1
  6
CONTINUOUS
 62
   160
100
AcDbCircle
 10
119.090526
 20
-87.849134
 30
0.0
 40
0.66075
100
AcDbArc
 50
328.104516
 51
31.895456
  0
LINE
  5
44A
100
AcDbEntity
  8
1
  6
CONTINUOUS
 62
   160
100
AcDbLine
 10
172.129528
 20
-87.500331
 30
0.0
 11
175.869528
 21
-87.500356
 31
0.0
  0
ARC
  5
44B
100
AcDbEntity
  8
1
  6
CONTINUOUS
 62
   160
100
AcDbCircle
 10
173.999551
 20
-84.248844
 30
0.0
 40
4.5815
100
AcDbArc
 50
245.910136
 51
294.089066
  0
ARC
  5
44C
100
AcDbEntity
  8
1
  6
CONTINUOUS
 62
   160
100
AcDbCircle
 10
175.121525
 20
-87.965851
 30
0.0
 40
0.881
100
AcDbArc
 50
328.104516
 51
31.894692
  0
ARC
  5
44D
100
AcDbEntity
  8
1
  6
CONTINUOUS
 62
   160
100
AcDbCircle
 10
172.877525
 20
-87.965836
 30
0.0
 40
0.881
100
AcDbArc
 50
148.104516
 51
211.894686
  0
ARC
  5
44E
100
AcDbEntity
  8
1
  6
CONTINUOUS
 62
   160
100
AcDbCircle
 10
59.938875
 20
-122.5995
 30
0.0
 40
3.436125
100
AcDbArc
 50
156.411815
 51
204.08947
  0
ARC
  5
44F
100
AcDbEntity
  8
1
  6
CONTINUOUS
 62
   160
100
AcDbCircle
 10
57.151125
 20
-123.441
 30
0.0
 40
0.66075
100
AcDbArc
 50
238.10492
 51
256.800698
  0
ARC
  5
450
100
AcDbEntity
  8
1
  6
CONTINUOUS
 62
   160
100
AcDbCircle
 10
172.87825
 20
122.9655
 30
0.0
 40
0.881
100
AcDbArc
 50
148.10492
 51
211.89509
  0
ARC
  5
451
100
AcDbEntity
  8
1
  6
CONTINUOUS
 62
   160
100
AcDbCircle
 10
175.12225
 20
122.9655
 30
0.0
 40
0.881
100
AcDbArc
 50
-31.895086
 51
31.89509
  0
ARC
  5
452
100
AcDbEntity
  8
1
  6
CONTINUOUS
 62
   160
100
AcDbCircle
 10
174.00025
 20
119.2485
 30
0.0
 40
4.5815
100
AcDbArc
 50
65.91054
 51
114.08947
  0
LINE
  5
453
100
AcDbEntity
  8
1
  6
CONTINUOUS
 62
   160
100
AcDbLine
 10
172.13025
 20
122.5
 30
0.0
 11
175.87025
 21
122.5
 31
0.0
  0
ARC
  5
454
100
AcDbEntity
  8
1
  6
CONTINUOUS
 62
   160
100
AcDbCircle
 10
119.09125
 20
122.849125
 30
0.0
 40
0.66075
100
AcDbArc
 50
-31.89585
 51
31.89509
  0
ARC
  5
455
100
AcDbEntity
  8
1
  6
CONTINUOUS
 62
   160
100
AcDbCircle
 10
117.40825
 20
122.849125
 30
0.0
 40
0.66075
100
AcDbArc
 50
148.10492
 51
211.89585
  0
ARC
  5
456
100
AcDbEntity
  8
1
  6
CONTINUOUS
 62
   160
100
AcDbCircle
 10
118.24975
 20
120.061375
 30
0.0
 40
3.436125
100
AcDbArc
 50
65.91054
 51
114.08947
  0
LINE
  5
457
100
AcDbEntity
  8
1
  6
CONTINUOUS
 62
   160
100
AcDbLine
 10
116.84725
 20
122.5
 30
0.0
 11
119.65225
 21
122.5
 31
0.0
  0
ARC
  5
458
100
AcDbEntity
  8
1
  6
CONTINUOUS
 62
   160
100
AcDbCircle
 10
63.34175
 20
122.849125
 30
0.0
 40
0.66075
100
AcDbArc
 50
-31.89585
 51
31.89509
  0
ARC
  5
459
100
AcDbEntity
  8
1
  6
CONTINUOUS
 62
   160
100
AcDbCircle
 10
61.65875
 20
122.849125
 30
0.0
 40
0.66075
100
AcDbArc
 50
148.10492
 51
211.89585
  0
ARC
  5
45A
100
AcDbEntity
  8
1
  6
CONTINUOUS
 62
   160
100
AcDbCircle
 10
62.50025
 20
120.061375
 30
0.0
 40
3.436125
100
AcDbArc
 50
65.91054
 51
114.08947
  0
LINE
  5
45B
100
AcDbEntity
  8
1
  6
CONTINUOUS
 62
   160
100
AcDbLine
 10
61.09775
 20
122.5
 30
0.0
 11
63.90275
 21
122.5
 31
0.0
  0
ARC
  5
45C
100
AcDbEntity
  8
1
  6
CONTINUOUS
 62
   160
100
AcDbCircle
 10
57.150875
 20
95.0665
 30
0.0
 40
0.66075
100
AcDbArc
 50
103.199302
 51
121.89509
  0
ARC
  5
45D
100
AcDbEntity
  8
1
  6
CONTINUOUS
 62
   160
100
AcDbCircle
 10
59.938625
 20
94.225
 30
0.0
 40
3.436125
100
AcDbArc
 50
155.91054
 51
204.08947
  0
ARC
  5
45E
100
AcDbEntity
  8
1
  6
CONTINUOUS
 62
   160
100
AcDbCircle
 10
57.150875
 20
93.3835
 30
0.0
 40
0.66075
100
AcDbArc
 50
238.10492
 51
256.800698
  0
ARC
  5
45F
100
AcDbEntity
  8
1
  6
CONTINUOUS
 62
   160
100
AcDbCircle
 10
57.150875
 20
68.0665
 30
0.0
 40
0.66075
100
AcDbArc
 50
103.199302
 51
121.89509
  0
ARC
  5
460
100
AcDbEntity
  8
1
  6
CONTINUOUS
 62
   160
100
AcDbCircle
 10
59.938625
 20
67.225
 30
0.0
 40
3.436125
100
AcDbArc
 50
155.91054
 51
204.08947
  0
ARC
  5
461
100
AcDbEntity
  8
1
  6
CONTINUOUS
 62
   160
100
AcDbCircle
 10
57.150875
 20
66.3835
 30
0.0
 40
0.66075
100
AcDbArc
 50
238.10492
 51
256.800698
  0
ARC
  5
462
100
AcDbEntity
  8
1
  6
CONTINUOUS
 62
   160
100
AcDbCircle
 10
57.150875
 20
41.0665
 30
0.0
 40
0.66075
100
AcDbArc
 50
103.199302
 51
121.89509
  0
ARC
  5
463
100
AcDbEntity
  8
1
  6
CONTINUOUS
 62
   160
100
AcDbCircle
 10
59.938625
 20
40.225
 30
0.0
 40
3.436125
100
AcDbArc
 50
155.91054
 51
204.08947
  0
ARC
  5
464
100
AcDbEntity
  8
1
  6
CONTINUOUS
 62
   160
100
AcDbCircle
 10
57.150875
 20
39.3835
 30
0.0
 40
0.66075
100
AcDbArc
 50
238.10492
 51
256.800698
  0
CIRCLE
  5
465
100
AcDbEntity
  8
1
  6
CONTINUOUS
 62
   160
100
AcDbCircle
 10
174.0
 20
70.0
 30
0.0
 40
1.5
  0
ARC
  5
466
100
AcDbEntity
  8
1
  6
CONTINUOUS
 62
   160
100
AcDbCircle
 10
174.689429
 20
70.0
 30
0.0
 40
0.3
100
AcDbArc
 50
135.0
 51
225.0
  0
ARC
  5
467
100
AcDbEntity
  8
1
  6
CONTINUOUS
 62
   160
100
AcDbCircle
 10
174.0
 20
69.310571
 30
0.0
 40
0.3
100
AcDbArc
 50
45.0
 51
135.0
  0
ARC
  5
468
100
AcDbEntity
  8
1
  6
CONTINUOUS
 62
   160
100
AcDbCircle
 10
173.310571
 20
70.0
 30
0.0
 40
0.3
100
AcDbArc
 50
-45.0
 51
45.0
  0
ARC
  5
469
100
AcDbEntity
  8
1
  6
CONTINUOUS
 62
   160
100
AcDbCircle
 10
174.0
 20
70.689429
 30
0.0
 40
0.3
100
AcDbArc
 50
225.0
 51
315.0
  0
CIRCLE
  5
46A
100
AcDbEntity
  8
1
  6
CONTINUOUS
 62
   160
100
AcDbCircle
 10
173.310306
 20
69.999735
 30
0.0
 40
0.15
  0
LINE
  5
46B
100
AcDbEntity
  8
1
  6
CONTINUOUS
 62
   160
100
AcDbLine
 10
174.662913
 20
69.602252
 30
0.0
 11
174.477297
 21
69.787868
 31
0.0
  0
LINE
  5
46C
100
AcDbEntity
  8
1
  6
CONTINUOUS
 62
   160
100
AcDbLine
 10
173.787868
 20
70.477297
 30
0.0
 11
173.602252
 21
70.662913
 31
0.0
  0
LINE
  5
46D
100
AcDbEntity
  8
1
  6
CONTINUOUS
 62
   160
100
AcDbLine
 10
174.477297
 20
70.212132
 30
0.0
 11
174.662913
 21
70.397748
 31
0.0
  0
LINE
  5
46E
100
AcDbEntity
  8
1
  6
CONTINUOUS
 62
   160
100
AcDbLine
 10
173.602252
 20
69.337087
 30
0.0
 11
173.787868
 21
69.522703
 31
0.0
  0
LINE
  5
46F
100
AcDbEntity
  8
1
  6
CONTINUOUS
 62
   160
100
AcDbLine
 10
174.397748
 20
69.337087
 30
0.0
 11
174.212132
 21
69.522703
 31
0.0
  0
LINE
  5
470
100
AcDbEntity
  8
1
  6
CONTINUOUS
 62
   160
100
AcDbLine
 10
173.522703
 20
70.212132
 30
0.0
 11
173.337087
 21
70.397748
 31
0.0
  0
LINE
  5
471
100
AcDbEntity
  8
1
  6
CONTINUOUS
 62
   160
100
AcDbLine
 10
174.212132
 20
70.477297
 30
0.0
 11
174.397748
 21
70.662913
 31
0.0
  0
LINE
  5
472
100
AcDbEntity
  8
1
  6
CONTINUOUS
 62
   160
100
AcDbLine
 10
173.337087
 20
69.602252
 30
0.0
 11
173.522703
 21
69.787868
 31
0.0
  0
LINE
  5
473
100
AcDbEntity
  8
1
  6
CONTINUOUS
 62
   160
100
AcDbLine
 10
173.337087
 20
70.397748
 30
0.0
 11
173.602252
 21
70.662913
 31
0.0
  0
LINE
  5
474
100
AcDbEntity
  8
1
  6
CONTINUOUS
 62
   160
100
AcDbLine
 10
174.397748
 20
69.337087
 30
0.0
 11
174.662913
 21
69.602252
 31
0.0
  0
LINE
  5
475
100
AcDbEntity
  8
1
  6
CONTINUOUS
 62
   160
100
AcDbLine
 10
173.602252
 20
69.337087
 30
0.0
 11
173.337087
 21
69.602252
 31
0.0
  0
LINE
  5
476
100
AcDbEntity
  8
1
  6
CONTINUOUS
 62
   160
100
AcDbLine
 10
174.662913
 20
70.397748
 30
0.0
 11
174.397748
 21
70.662913
 31
0.0
  0
LINE
  5
477
100
AcDbEntity
  8
1
  6
CONTINUOUS
 62
   160
100
AcDbLine
 10
174.662913
 20
-34.602252
 30
0.0
 11
174.397748
 21
-34.337087
 31
0.0
  0
LINE
  5
478
100
AcDbEntity
  8
1
  6
CONTINUOUS
 62
   160
100
AcDbLine
 10
173.602252
 20
-35.662913
 30
0.0
 11
173.337087
 21
-35.397748
 31
0.0
  0
LINE
  5
479
100
AcDbEntity
  8
1
  6
CONTINUOUS
 62
   160
100
AcDbLine
 10
174.397748
 20
-35.662913
 30
0.0
 11
174.662913
 21
-35.397748
 31
0.0
  0
LINE
  5
47A
100
AcDbEntity
  8
1
  6
CONTINUOUS
 62
   160
100
AcDbLine
 10
173.337087
 20
-34.602252
 30
0.0
 11
173.602252
 21
-34.337087
 31
0.0
  0
LINE
  5
47B
100
AcDbEntity
  8
1
  6
CONTINUOUS
 62
   160
100
AcDbLine
 10
173.337087
 20
-35.397748
 30
0.0
 11
173.522703
 21
-35.212132
 31
0.0
  0
LINE
  5
47C
100
AcDbEntity
  8
1
  6
CONTINUOUS
 62
   160
100
AcDbLine
 10
174.212132
 20
-34.522703
 30
0.0
 11
174.397748
 21
-34.337087
 31
0.0
  0
LINE
  5
47D
100
AcDbEntity
  8
1
  6
CONTINUOUS
 62
   160
100
AcDbLine
 10
173.522703
 20
-34.787868
 30
0.0
 11
173.337087
 21
-34.602252
 31
0.0
  0
LINE
  5
47E
100
AcDbEntity
  8
1
  6
CONTINUOUS
 62
   160
100
AcDbLine
 10
174.397748
 20
-35.662913
 30
0.0
 11
174.212132
 21
-35.477297
 31
0.0
  0
LINE
  5
47F
100
AcDbEntity
  8
1
  6
CONTINUOUS
 62
   160
100
AcDbLine
 10
173.602252
 20
-35.662913
 30
0.0
 11
173.787868
 21
-35.477297
 31
0.0
  0
LINE
  5
480
100
AcDbEntity
  8
1
  6
CONTINUOUS
 62
   160
100
AcDbLine
 10
174.477297
 20
-34.787868
 30
0.0
 11
174.662913
 21
-34.602252
 31
0.0
  0
LINE
  5
481
100
AcDbEntity
  8
1
  6
CONTINUOUS
 62
   160
100
AcDbLine
 10
173.787868
 20
-34.522703
 30
0.0
 11
173.602252
 21
-34.337087
 31
0.0
  0
LINE
  5
482
100
AcDbEntity
  8
1
  6
CONTINUOUS
 62
   160
100
AcDbLine
 10
174.662913
 20
-35.397748
 30
0.0
 11
174.477297
 21
-35.212132
 31
0.0
  0
CIRCLE
  5
483
100
AcDbEntity
  8
1
  6
CONTINUOUS
 62
   160
100
AcDbCircle
 10
173.310306
 20
-35.000265
 30
0.0
 40
0.15
  0
ARC
  5
484
100
AcDbEntity
  8
1
  6
CONTINUOUS
 62
   160
100
AcDbCircle
 10
174.0
 20
-34.310571
 30
0.0
 40
0.3
100
AcDbArc
 50
225.0
 51
315.0
  0
ARC
  5
485
100
AcDbEntity
  8
1
  6
CONTINUOUS
 62
   160
100
AcDbCircle
 10
173.310571
 20
-35.0
 30
0.0
 40
0.3
100
AcDbArc
 50
-45.0
 51
45.0
  0
ARC
  5
486
100
AcDbEntity
  8
1
  6
CONTINUOUS
 62
   160
100
AcDbCircle
 10
174.0
 20
-35.689429
 30
0.0
 40
0.3
100
AcDbArc
 50
45.0
 51
135.0
  0
ARC
  5
487
100
AcDbEntity
  8
1
  6
CONTINUOUS
 62
   160
100
AcDbCircle
 10
174.689429
 20
-35.0
 30
0.0
 40
0.3
100
AcDbArc
 50
135.0
 51
225.0
  0
CIRCLE
  5
488
100
AcDbEntity
  8
1
  6
CONTINUOUS
 62
   160
100
AcDbCircle
 10
174.0
 20
-35.0
 30
0.0
 40
1.5
  0
CIRCLE
  5
489
100
AcDbEntity
  8
1
  6
CONTINUOUS
 62
   160
100
AcDbCircle
 10
61.5
 20
-35.0
 30
0.0
 40
1.5
  0
ARC
  5
48A
100
AcDbEntity
  8
1
  6
CONTINUOUS
 62
   160
100
AcDbCircle
 10
62.189429
 20
-35.0
 30
0.0
 40
0.3
100
AcDbArc
 50
135.0
 51
225.0
  0
ARC
  5
48B
100
AcDbEntity
  8
1
  6
CONTINUOUS
 62
   160
100
AcDbCircle
 10
61.5
 20
-35.689429
 30
0.0
 40
0.3
100
AcDbArc
 50
45.0
 51
135.0
  0
ARC
  5
48C
100
AcDbEntity
  8
1
  6
CONTINUOUS
 62
   160
100
AcDbCircle
 10
60.810571
 20
-35.0
 30
0.0
 40
0.3
100
AcDbArc
 50
-45.0
 51
45.0
  0
ARC
  5
48D
100
AcDbEntity
  8
1
  6
CONTINUOUS
 62
   160
100
AcDbCircle
 10
61.5
 20
-34.310571
 30
0.0
 40
0.3
100
AcDbArc
 50
225.0
 51
315.0
  0
CIRCLE
  5
48E
100
AcDbEntity
  8
1
  6
CONTINUOUS
 62
   160
100
AcDbCircle
 10
60.810306
 20
-35.000265
 30
0.0
 40
0.15
  0
LINE
  5
48F
100
AcDbEntity
  8
1
  6
CONTINUOUS
 62
   160
100
AcDbLine
 10
62.162913
 20
-35.397748
 30
0.0
 11
61.977297
 21
-35.212132
 31
0.0
  0
LINE
  5
490
100
AcDbEntity
  8
1
  6
CONTINUOUS
 62
   160
100
AcDbLine
 10
61.287868
 20
-34.522703
 30
0.0
 11
61.102252
 21
-34.337087
 31
0.0
  0
LINE
  5
491
100
AcDbEntity
  8
1
  6
CONTINUOUS
 62
   160
100
AcDbLine
 10
61.977297
 20
-34.787868
 30
0.0
 11
62.162913
 21
-34.602252
 31
0.0
  0
LINE
  5
492
100
AcDbEntity
  8
1
  6
CONTINUOUS
 62
   160
100
AcDbLine
 10
61.102252
 20
-35.662913
 30
0.0
 11
61.287868
 21
-35.477297
 31
0.0
  0
LINE
  5
493
100
AcDbEntity
  8
1
  6
CONTINUOUS
 62
   160
100
AcDbLine
 10
61.897748
 20
-35.662913
 30
0.0
 11
61.712132
 21
-35.477297
 31
0.0
  0
LINE
  5
494
100
AcDbEntity
  8
1
  6
CONTINUOUS
 62
   160
100
AcDbLine
 10
61.022703
 20
-34.787868
 30
0.0
 11
60.837087
 21
-34.602252
 31
0.0
  0
LINE
  5
495
100
AcDbEntity
  8
1
  6
CONTINUOUS
 62
   160
100
AcDbLine
 10
61.712132
 20
-34.522703
 30
0.0
 11
61.897748
 21
-34.337087
 31
0.0
  0
LINE
  5
496
100
AcDbEntity
  8
1
  6
CONTINUOUS
 62
   160
100
AcDbLine
 10
60.837087
 20
-35.397748
 30
0.0
 11
61.022703
 21
-35.212132
 31
0.0
  0
LINE
  5
497
100
AcDbEntity
  8
1
  6
CONTINUOUS
 62
   160
100
AcDbLine
 10
60.837087
 20
-34.602252
 30
0.0
 11
61.102252
 21
-34.337087
 31
0.0
  0
LINE
  5
498
100
AcDbEntity
  8
1
  6
CONTINUOUS
 62
   160
100
AcDbLine
 10
61.897748
 20
-35.662913
 30
0.0
 11
62.162913
 21
-35.397748
 31
0.0
  0
LINE
  5
499
100
AcDbEntity
  8
1
  6
CONTINUOUS
 62
   160
100
AcDbLine
 10
61.102252
 20
-35.662913
 30
0.0
 11
60.837087
 21
-35.397748
 31
0.0
  0
LINE
  5
49A
100
AcDbEntity
  8
1
  6
CONTINUOUS
 62
   160
100
AcDbLine
 10
62.162913
 20
-34.602252
 30
0.0
 11
61.897748
 21
-34.337087
 31
0.0
  0
LINE
  5
49B
100
AcDbEntity
  8
1
  6
CONTINUOUS
 62
   160
100
AcDbLine
 10
62.162913
 20
70.397748
 30
0.0
 11
61.897748
 21
70.662913
 31
0.0
  0
LINE
  5
49C
100
AcDbEntity
  8
1
  6
CONTINUOUS
 62
   160
100
AcDbLine
 10
61.102252
 20
69.337087
 30
0.0
 11
60.837087
 21
69.602252
 31
0.0
  0
LINE
  5
49D
100
AcDbEntity
  8
1
  6
CONTINUOUS
 62
   160
100
AcDbLine
 10
61.897748
 20
69.337087
 30
0.0
 11
62.162913
 21
69.602252
 31
0.0
  0
LINE
  5
49E
100
AcDbEntity
  8
1
  6
CONTINUOUS
 62
   160
100
AcDbLine
 10
60.837087
 20
70.397748
 30
0.0
 11
61.102252
 21
70.662913
 31
0.0
  0
LINE
  5
49F
100
AcDbEntity
  8
1
  6
CONTINUOUS
 62
   160
100
AcDbLine
 10
60.837087
 20
69.602252
 30
0.0
 11
61.022703
 21
69.787868
 31
0.0
  0
LINE
  5
4A0
100
AcDbEntity
  8
1
  6
CONTINUOUS
 62
   160
100
AcDbLine
 10
61.712132
 20
70.477297
 30
0.0
 11
61.897748
 21
70.662913
 31
0.0
  0
LINE
  5
4A1
100
AcDbEntity
  8
1
  6
CONTINUOUS
 62
   160
100
AcDbLine
 10
61.022703
 20
70.212132
 30
0.0
 11
60.837087
 21
70.397748
 31
0.0
  0
LINE
  5
4A2
100
AcDbEntity
  8
1
  6
CONTINUOUS
 62
   160
100
AcDbLine
 10
61.897748
 20
69.337087
 30
0.0
 11
61.712132
 21
69.522703
 31
0.0
  0
LINE
  5
4A3
100
AcDbEntity
  8
1
  6
CONTINUOUS
 62
   160
100
AcDbLine
 10
61.102252
 20
69.337087
 30
0.0
 11
61.287868
 21
69.522703
 31
0.0
  0
LINE
  5
4A4
100
AcDbEntity
  8
1
  6
CONTINUOUS
 62
   160
100
AcDbLine
 10
61.977297
 20
70.212132
 30
0.0
 11
62.162913
 21
70.397748
 31
0.0
  0
LINE
  5
4A5
100
AcDbEntity
  8
1
  6
CONTINUOUS
 62
   160
100
AcDbLine
 10
61.287868
 20
70.477297
 30
0.0
 11
61.102252
 21
70.662913
 31
0.0
  0
LINE
  5
4A6
100
AcDbEntity
  8
1
  6
CONTINUOUS
 62
   160
100
AcDbLine
 10
62.162913
 20
69.602252
 30
0.0
 11
61.977297
 21
69.787868
 31
0.0
  0
CIRCLE
  5
4A7
100
AcDbEntity
  8
1
  6
CONTINUOUS
 62
   160
100
AcDbCircle
 10
60.810306
 20
69.999735
 30
0.0
 40
0.15
  0
ARC
  5
4A8
100
AcDbEntity
  8
1
  6
CONTINUOUS
 62
   160
100
AcDbCircle
 10
61.5
 20
70.689429
 30
0.0
 40
0.3
100
AcDbArc
 50
225.0
 51
315.0
  0
ARC
  5
4A9
100
AcDbEntity
  8
1
  6
CONTINUOUS
 62
   160
100
AcDbCircle
 10
60.810571
 20
70.0
 30
0.0
 40
0.3
100
AcDbArc
 50
-45.0
 51
45.0
  0
ARC
  5
4AA
100
AcDbEntity
  8
1
  6
CONTINUOUS
 62
   160
100
AcDbCircle
 10
61.5
 20
69.310571
 30
0.0
 40
0.3
100
AcDbArc
 50
45.0
 51
135.0
  0
ARC
  5
4AB
100
AcDbEntity
  8
1
  6
CONTINUOUS
 62
   160
100
AcDbCircle
 10
62.189429
 20
70.0
 30
0.0
 40
0.3
100
AcDbArc
 50
135.0
 51
225.0
  0
CIRCLE
  5
4AC
100
AcDbEntity
  8
1
  6
CONTINUOUS
 62
   160
100
AcDbCircle
 10
61.5
 20
70.0
 30
0.0
 40
1.5
  0
LINE
  5
4AD
100
AcDbEntity
  8
1
  6
CONTINUOUS
 62
    80
100
AcDbLine
 10
54.91
 20
-59.126
 30
0.0
 11
54.91
 21
-63.376
 31
0.0
  0
ARC
  5
4AE
100
AcDbEntity
  8
1
  6
CONTINUOUS
 62
   160
100
AcDbCircle
 10
57.15172
 20
150.508374
 30
0.0
 40
0.66075
100
AcDbArc
 50
238.104516
 51
256.747664
  0
ARC
  5
4AF
100
AcDbEntity
  8
1
  6
CONTINUOUS
 62
   160
100
AcDbCircle
 10
59.939476
 20
151.349854
 30
0.0
 40
3.436125
100
AcDbArc
 50
177.91483
 51
204.089066
  0
LINE
  5
4B0
100
AcDbEntity
  8
1
  6
CONTINUOUS
 62
   191
100
AcDbLine
 10
52.000881
 20
155.7235
 30
0.0
 11
52.000885
 21
156.224909
 31
0.0
  0
LINE
  5
4B1
100
AcDbEntity
  8
1
  6
CONTINUOUS
 62
   191
100
AcDbLine
 10
52.000885
 20
156.224909
 30
0.0
 11
55.5
 21
156.224885
 31
0.0
  0
LINE
  5
4B2
100
AcDbEntity
  8
1
  6
CONTINUOUS
 62
    80
100
AcDbLine
 10
56.499115
 20
-121.2245
 30
0.0
 11
56.499093
 21
-124.4745
 31
0.0
  0
LINE
  5
4B3
100
AcDbEntity
  8
1
  6
CONTINUOUS
 62
    80
100
AcDbLine
 10
56.49906
 20
-129.2245
 30
0.0
 11
56.499036
 21
-132.749122
 31
0.0
  0
LINE
  5
4B4
100
AcDbEntity
  8
1
  6
CONTINUOUS
 62
    80
100
AcDbLine
 10
55.49906
 20
-129.2245
 30
0.0
 11
55.499044
 21
-131.649115
 31
0.0
  0
LINE
  5
4B5
100
AcDbEntity
  8
1
  6
CONTINUOUS
 62
    80
100
AcDbLine
 10
56.499042
 20
-131.899122
 30
0.0
 11
55.749042
 21
-131.899117
 31
0.0
  0
ARC
  5
4B6
100
AcDbEntity
  8
1
  6
CONTINUOUS
 62
    80
100
AcDbCircle
 10
55.749044
 20
-131.649117
 30
0.0
 40
0.25
100
AcDbArc
 50
179.999606
 51
269.999606
  0
ARC
  5
4B7
100
AcDbEntity
  8
1
  6
CONTINUOUS
 62
    80
100
AcDbCircle
 10
56.749036
 20
-132.749124
 30
0.0
 40
0.25
100
AcDbArc
 50
179.999606
 51
269.999606
  0
LINE
  5
4B8
100
AcDbEntity
  8
1
  6
CONTINUOUS
 62
    80
100
AcDbLine
 10
56.999284
 20
-132.999125
 30
0.0
 11
56.749034
 21
-132.999124
 31
0.0
  0
LINE
  5
4B9
100
AcDbEntity
  8
1
  6
CONTINUOUS
 62
    80
100
AcDbLine
 10
55.499115
 20
-121.2245
 30
0.0
 11
55.499093
 21
-124.4745
 31
0.0
  0
LINE
  5
4BA
100
AcDbEntity
  8
1
  6
CONTINUOUS
 62
    80
100
AcDbLine
 10
56.499153
 20
-115.749122
 30
0.0
 11
56.499152
 21
-115.818714
 31
0.0
  0
ARC
  5
4BB
100
AcDbEntity
  8
1
  6
CONTINUOUS
 62
    80
100
AcDbCircle
 10
56.749153
 20
-115.749124
 30
0.0
 40
0.25
100
AcDbArc
 50
127.622005
 51
179.999606
  0
LINE
  5
4BC
100
AcDbEntity
  8
1
  6
CONTINUOUS
 62
    80
100
AcDbLine
 10
51.85
 20
-115.9745
 30
0.0
 11
51.85
 21
-120.7245
 31
0.0
  0
LINE
  5
4BD
100
AcDbEntity
  8
1
  6
CONTINUOUS
 62
    80
100
AcDbLine
 10
51.85
 20
-115.9745
 30
0.0
 11
56.450993
 21
-115.9745
 31
0.0
  0
LINE
  5
4BE
100
AcDbEntity
  8
1
  6
CONTINUOUS
 62
    80
100
AcDbLine
 10
51.85
 20
-120.7245
 30
0.0
 11
52.0
 21
-120.7245
 31
0.0
  0
LINE
  5
4BF
100
AcDbEntity
  8
1
  6
CONTINUOUS
 62
    80
100
AcDbLine
 10
51.85
 20
-124.4745
 30
0.0
 11
57.00025
 21
-124.4745
 31
0.0
  0
CIRCLE
  5
4C0
100
AcDbEntity
  8
1
  6
CONTINUOUS
 62
    80
100
AcDbCircle
 10
53.97
 20
-126.8495
 30
0.0
 40
0.5
  0
LINE
  5
4C1
100
AcDbEntity
  8
1
  6
CONTINUOUS
 62
    80
100
AcDbLine
 10
51.85
 20
-124.4745
 30
0.0
 11
51.85
 21
-129.2245
 31
0.0
  0
LINE
  5
4C2
100
AcDbEntity
  8
1
  6
CONTINUOUS
 62
    80
100
AcDbLine
 10
51.85
 20
-129.2245
 30
0.0
 11
57.00025
 21
-129.2245
 31
0.0
  0
ARC
  5
4C3
100
AcDbEntity
  8
1
  6
CONTINUOUS
 62
    80
100
AcDbCircle
 10
55.275
 20
-128.6495
 30
0.0
 40
0.25
100
AcDbArc
 50
180.0
 51
270.0
  0
ARC
  5
4C4
100
AcDbEntity
  8
1
  6
CONTINUOUS
 62
    80
100
AcDbCircle
 10
55.275
 20
-125.2495
 30
0.0
 40
0.25
100
AcDbArc
 50
90.0
 51
180.0
  0
LINE
  5
4C5
100
AcDbEntity
  8
1
  6
CONTINUOUS
 62
    80
100
AcDbLine
 10
55.025
 20
-125.507
 30
0.0
 11
55.025
 21
-125.2495
 31
0.0
  0
LINE
  5
4C6
100
AcDbEntity
  8
1
  6
CONTINUOUS
 62
     7
100
AcDbLine
 10
54.95
 20
-128.392
 30
0.0
 11
54.95
 21
-125.507
 31
0.0
  0
LINE
  5
4C7
100
AcDbEntity
  8
1
  6
CONTINUOUS
 62
    80
100
AcDbLine
 10
55.025
 20
-128.6495
 30
0.0
 11
55.025
 21
-128.392
 31
0.0
  0
LINE
  5
4C8
100
AcDbEntity
  8
1
  6
CONTINUOUS
 62
     7
100
AcDbLine
 10
54.95
 20
-126.9495
 30
0.0
 11
57.00025
 21
-126.9495
 31
0.0
  0
LINE
  5
4C9
100
AcDbEntity
  8
1
  6
CONTINUOUS
 62
     7
100
AcDbLine
 10
55.025
 20
-125.507
 30
0.0
 11
57.00025
 21
-125.507
 31
0.0
  0
LINE
  5
4CA
100
AcDbEntity
  8
1
  6
CONTINUOUS
 62
     7
100
AcDbLine
 10
55.025
 20
-128.392
 30
0.0
 11
57.00025
 21
-128.392
 31
0.0
  0
LINE
  5
4CB
100
AcDbEntity
  8
1
  6
CONTINUOUS
 62
     7
100
AcDbLine
 10
54.95
 20
-125.507
 30
0.0
 11
57.00025
 21
-125.507
 31
0.0
  0
LINE
  5
4CC
100
AcDbEntity
  8
1
  6
CONTINUOUS
 62
     7
100
AcDbLine
 10
54.95
 20
-128.392
 30
0.0
 11
57.00025
 21
-128.392
 31
0.0
  0
LINE
  5
4CD
100
AcDbEntity
  8
1
  6
CONTINUOUS
 62
    80
100
AcDbLine
 10
55.275
 20
-124.9995
 30
0.0
 11
57.00025
 21
-124.9995
 31
0.0
  0
LINE
  5
4CE
100
AcDbEntity
  8
1
  6
CONTINUOUS
 62
    80
100
AcDbLine
 10
55.275
 20
-128.8995
 30
0.0
 11
57.00025
 21
-128.8995
 31
0.0
  0
CIRCLE
  5
4CF
100
AcDbEntity
  8
1
  6
CONTINUOUS
 62
   191
100
AcDbCircle
 10
54.12
 20
-118.8495
 30
0.0
 40
0.5
  0
LINE
  5
4D0
100
AcDbEntity
  8
1
  6
CONTINUOUS
 62
   191
100
AcDbLine
 10
52.0
 20
-116.4745
 30
0.0
 11
52.0
 21
-121.2245
 31
0.0
  0
LINE
  5
4D1
100
AcDbEntity
  8
1
  6
CONTINUOUS
 62
   191
100
AcDbLine
 10
52.0
 20
-121.2245
 30
0.0
 11
57.00025
 21
-121.2245
 31
0.0
  0
LINE
  5
4D2
100
AcDbEntity
  8
1
  6
CONTINUOUS
 62
   191
100
AcDbLine
 10
52.0
 20
-116.4745
 30
0.0
 11
56.336029
 21
-116.4745
 31
0.0
  0
ARC
  5
4D3
100
AcDbEntity
  8
1
  6
CONTINUOUS
 62
   160
100
AcDbCircle
 10
59.938625
 20
-116.3495
 30
0.0
 40
3.436125
100
AcDbArc
 50
155.91054
 51
166.55364
  0
ARC
  5
4D4
100
AcDbEntity
  8
1
  6
CONTINUOUS
 62
   160
100
AcDbCircle
 10
57.150875
 20
-115.508
 30
0.0
 40
0.66075
100
AcDbArc
 50
103.177034
 51
121.89509
  0
ARC
  5
4D5
100
AcDbEntity
  8
1
  6
CONTINUOUS
 62
    80
100
AcDbCircle
 10
56.75
 20
167.7495
 30
0.0
 40
0.25
100
AcDbArc
 50
90.0
 51
180.0
  0
ARC
  5
4D6
100
AcDbEntity
  8
1
  6
CONTINUOUS
 62
    80
100
AcDbCircle
 10
55.75
 20
166.6495
 30
0.0
 40
0.25
100
AcDbArc
 50
90.0
 51
180.0
  0
ARC
  5
4D7
100
AcDbEntity
  8
1
  6
CONTINUOUS
 62
    80
100
AcDbCircle
 10
55.75
 20
151.8495
 30
0.0
 40
0.25
100
AcDbArc
 50
180.0
 51
270.0
  0
ARC
  5
4D8
100
AcDbEntity
  8
1
  6
CONTINUOUS
 62
    80
100
AcDbCircle
 10
56.75
 20
150.7495
 30
0.0
 40
0.25
100
AcDbArc
 50
180.0
 51
270.0
  0
LINE
  5
4D9
100
AcDbEntity
  8
1
  6
CONTINUOUS
 62
    80
100
AcDbLine
 10
57.00025
 20
167.9995
 30
0.0
 11
56.75
 21
167.9995
 31
0.0
  0
LINE
  5
4DA
100
AcDbEntity
  8
1
  6
CONTINUOUS
 62
    80
100
AcDbLine
 10
56.5
 20
166.8995
 30
0.0
 11
55.75
 21
166.8995
 31
0.0
  0
LINE
  5
4DB
100
AcDbEntity
  8
1
  6
CONTINUOUS
 62
    80
100
AcDbLine
 10
56.5
 20
151.5995
 30
0.0
 11
55.75
 21
151.5995
 31
0.0
  0
LINE
  5
4DC
100
AcDbEntity
  8
1
  6
CONTINUOUS
 62
    80
100
AcDbLine
 10
57.00025
 20
150.4995
 30
0.0
 11
56.75
 21
150.4995
 31
0.0
  0
LINE
  5
4DD
100
AcDbEntity
  8
1
  6
CONTINUOUS
 62
    80
100
AcDbLine
 10
56.5
 20
150.7495
 30
0.0
 11
56.5
 21
167.7495
 31
0.0
  0
LINE
  5
4DE
100
AcDbEntity
  8
1
  6
CONTINUOUS
 62
    80
100
AcDbLine
 10
55.5
 20
151.8495
 30
0.0
 11
55.5
 21
166.6495
 31
0.0
  0
LINE
  5
4DF
100
AcDbEntity
  8
1
  6
CONTINUOUS
 62
   160
100
AcDbLine
 10
118.91275
 20
165.1025
 30
0.0
 11
118.64775
 21
164.8365
 31
0.0
  0
LINE
  5
4E0
100
AcDbEntity
  8
1
  6
CONTINUOUS
 62
   160
100
AcDbLine
 10
117.85175
 20
166.1625
 30
0.0
 11
117.58675
 21
165.8975
 31
0.0
  0
LINE
  5
4E1
100
AcDbEntity
  8
1
  6
CONTINUOUS
 62
   160
100
AcDbLine
 10
117.58675
 20
165.1025
 30
0.0
 11
117.85175
 21
164.8365
 31
0.0
  0
LINE
  5
4E2
100
AcDbEntity
  8
1
  6
CONTINUOUS
 62
   160
100
AcDbLine
 10
118.64775
 20
166.1625
 30
0.0
 11
118.91275
 21
165.8975
 31
0.0
  0
LINE
  5
4E3
100
AcDbEntity
  8
1
  6
CONTINUOUS
 62
   160
100
AcDbLine
 10
117.85175
 20
166.1625
 30
0.0
 11
118.03775
 21
165.9775
 31
0.0
  0
LINE
  5
4E4
100
AcDbEntity
  8
1
  6
CONTINUOUS
 62
   160
100
AcDbLine
 10
118.72675
 20
165.2875
 30
0.0
 11
118.91275
 21
165.1025
 31
0.0
  0
LINE
  5
4E5
100
AcDbEntity
  8
1
  6
CONTINUOUS
 62
   160
100
AcDbLine
 10
118.64775
 20
166.1625
 30
0.0
 11
118.46175
 21
165.9775
 31
0.0
  0
LINE
  5
4E6
100
AcDbEntity
  8
1
  6
CONTINUOUS
 62
   160
100
AcDbLine
 10
117.77275
 20
165.2875
 30
0.0
 11
117.58675
 21
165.1025
 31
0.0
  0
LINE
  5
4E7
100
AcDbEntity
  8
1
  6
CONTINUOUS
 62
   160
100
AcDbLine
 10
117.58675
 20
165.8975
 30
0.0
 11
117.77275
 21
165.7115
 31
0.0
  0
LINE
  5
4E8
100
AcDbEntity
  8
1
  6
CONTINUOUS
 62
   160
100
AcDbLine
 10
118.46175
 20
165.0225
 30
0.0
 11
118.64775
 21
164.8365
 31
0.0
  0
LINE
  5
4E9
100
AcDbEntity
  8
1
  6
CONTINUOUS
 62
   160
100
AcDbLine
 10
118.91275
 20
165.8975
 30
0.0
 11
118.72675
 21
165.7115
 31
0.0
  0
LINE
  5
4EA
100
AcDbEntity
  8
1
  6
CONTINUOUS
 62
   160
100
AcDbLine
 10
118.03775
 20
165.0225
 30
0.0
 11
117.85175
 21
164.8365
 31
0.0
  0
CIRCLE
  5
4EB
100
AcDbEntity
  8
1
  6
CONTINUOUS
 62
   160
100
AcDbCircle
 10
118.24975
 20
166.1895
 30
0.0
 40
0.15
  0
ARC
  5
4EC
100
AcDbEntity
  8
1
  6
CONTINUOUS
 62
   160
100
AcDbCircle
 10
118.93875
 20
165.4995
 30
0.0
 40
0.3
100
AcDbArc
 50
135.0
 51
225.0
  0
ARC
  5
4ED
100
AcDbEntity
  8
1
  6
CONTINUOUS
 62
   160
100
AcDbCircle
 10
118.24975
 20
166.1895
 30
0.0
 40
0.3
100
AcDbArc
 50
225.0
 51
315.0
  0
ARC
  5
4EE
100
AcDbEntity
  8
1
  6
CONTINUOUS
 62
   160
100
AcDbCircle
 10
117.56075
 20
165.4995
 30
0.0
 40
0.3
100
AcDbArc
 50
315.0
 51
45.0
  0
ARC
  5
4EF
100
AcDbEntity
  8
1
  6
CONTINUOUS
 62
   160
100
AcDbCircle
 10
118.24975
 20
164.8105
 30
0.0
 40
0.3
100
AcDbArc
 50
45.0
 51
135.0
  0
CIRCLE
  5
4F0
100
AcDbEntity
  8
1
  6
CONTINUOUS
 62
   160
100
AcDbCircle
 10
118.24975
 20
165.4995
 30
0.0
 40
1.35
  0
CIRCLE
  5
4F1
100
AcDbEntity
  8
1
  6
CONTINUOUS
 62
   160
100
AcDbCircle
 10
118.24975
 20
165.4995
 30
0.0
 40
1.5
  0
LINE
  5
4F2
100
AcDbEntity
  8
1
  6
CONTINUOUS
 62
   191
100
AcDbLine
 10
53.705
 20
-68.126
 30
0.0
 11
53.705
 21
-68.526
 31
0.0
  0
LINE
  5
4F3
100
AcDbEntity
  8
1
  6
CONTINUOUS
 62
   191
100
AcDbLine
 10
53.705
 20
-68.526
 30
0.0
 11
54.685
 21
-68.526
 31
0.0
  0
LINE
  5
4F4
100
AcDbEntity
  8
1
  6
CONTINUOUS
 62
   191
100
AcDbLine
 10
54.685
 20
-68.126
 30
0.0
 11
54.685
 21
-68.526
 31
0.0
  0
LINE
  5
4F5
100
AcDbEntity
  8
1
  6
CONTINUOUS
 62
   191
100
AcDbLine
 10
53.705
 20
-62.976
 30
0.0
 11
53.705
 21
-63.376
 31
0.0
  0
LINE
  5
4F6
100
AcDbEntity
  8
1
  6
CONTINUOUS
 62
   191
100
AcDbLine
 10
53.705
 20
-62.976
 30
0.0
 11
54.685
 21
-62.976
 31
0.0
  0
LINE
  5
4F7
100
AcDbEntity
  8
1
  6
CONTINUOUS
 62
   191
100
AcDbLine
 10
54.685
 20
-62.976
 30
0.0
 11
54.685
 21
-63.376
 31
0.0
  0
LINE
  5
4F8
100
AcDbEntity
  8
1
  6
CONTINUOUS
 62
   191
100
AcDbLine
 10
52.0
 20
-63.376
 30
0.0
 11
57.0
 21
-63.376
 31
0.0
  0
LINE
  5
4F9
100
AcDbEntity
  8
1
  6
CONTINUOUS
 62
   191
100
AcDbLine
 10
52.0
 20
-63.376
 30
0.0
 11
52.0
 21
-68.126
 31
0.0
  0
LINE
  5
4FA
100
AcDbEntity
  8
1
  6
CONTINUOUS
 62
   191
100
AcDbLine
 10
52.0
 20
-68.126
 30
0.0
 11
57.0
 21
-68.126
 31
0.0
  0
LINE
  5
4FB
100
AcDbEntity
  8
1
  6
CONTINUOUS
 62
   191
100
AcDbLine
 10
53.705
 20
-59.126
 30
0.0
 11
53.705
 21
-59.526
 31
0.0
  0
LINE
  5
4FC
100
AcDbEntity
  8
1
  6
CONTINUOUS
 62
   191
100
AcDbLine
 10
53.705
 20
-59.526
 30
0.0
 11
54.685
 21
-59.526
 31
0.0
  0
LINE
  5
4FD
100
AcDbEntity
  8
1
  6
CONTINUOUS
 62
   191
100
AcDbLine
 10
54.685
 20
-59.126
 30
0.0
 11
54.685
 21
-59.526
 31
0.0
  0
LINE
  5
4FE
100
AcDbEntity
  8
1
  6
CONTINUOUS
 62
   191
100
AcDbLine
 10
53.705
 20
-53.976
 30
0.0
 11
53.705
 21
-54.376
 31
0.0
  0
LINE
  5
4FF
100
AcDbEntity
  8
1
  6
CONTINUOUS
 62
   191
100
AcDbLine
 10
53.705
 20
-53.976
 30
0.0
 11
54.685
 21
-53.976
 31
0.0
  0
LINE
  5
500
100
AcDbEntity
  8
1
  6
CONTINUOUS
 62
   191
100
AcDbLine
 10
54.685
 20
-53.976
 30
0.0
 11
54.685
 21
-54.376
 31
0.0
  0
LINE
  5
501
100
AcDbEntity
  8
1
  6
CONTINUOUS
 62
   191
100
AcDbLine
 10
52.0
 20
-54.376
 30
0.0
 11
57.0
 21
-54.376
 31
0.0
  0
LINE
  5
502
100
AcDbEntity
  8
1
  6
CONTINUOUS
 62
   191
100
AcDbLine
 10
52.0
 20
-54.376
 30
0.0
 11
52.0
 21
-59.126
 31
0.0
  0
LINE
  5
503
100
AcDbEntity
  8
1
  6
CONTINUOUS
 62
   191
100
AcDbLine
 10
52.0
 20
-59.126
 30
0.0
 11
57.0
 21
-59.126
 31
0.0
  0
LINE
  5
504
100
AcDbEntity
  8
1
  6
CONTINUOUS
 62
   191
100
AcDbLine
 10
53.705
 20
-50.126
 30
0.0
 11
53.705
 21
-50.526
 31
0.0
  0
LINE
  5
505
100
AcDbEntity
  8
1
  6
CONTINUOUS
 62
   191
100
AcDbLine
 10
53.705
 20
-50.526
 30
0.0
 11
54.685
 21
-50.526
 31
0.0
  0
LINE
  5
506
100
AcDbEntity
  8
1
  6
CONTINUOUS
 62
   191
100
AcDbLine
 10
54.685
 20
-50.126
 30
0.0
 11
54.685
 21
-50.526
 31
0.0
  0
LINE
  5
507
100
AcDbEntity
  8
1
  6
CONTINUOUS
 62
   191
100
AcDbLine
 10
53.705
 20
-44.976
 30
0.0
 11
53.705
 21
-45.376
 31
0.0
  0
LINE
  5
508
100
AcDbEntity
  8
1
  6
CONTINUOUS
 62
   191
100
AcDbLine
 10
53.705
 20
-44.976
 30
0.0
 11
54.685
 21
-44.976
 31
0.0
  0
LINE
  5
509
100
AcDbEntity
  8
1
  6
CONTINUOUS
 62
   191
100
AcDbLine
 10
54.685
 20
-44.976
 30
0.0
 11
54.685
 21
-45.376
 31
0.0
  0
LINE
  5
50A
100
AcDbEntity
  8
1
  6
CONTINUOUS
 62
   191
100
AcDbLine
 10
53.705
 20
-71.976
 30
0.0
 11
53.705
 21
-72.376
 31
0.0
  0
LINE
  5
50B
100
AcDbEntity
  8
1
  6
CONTINUOUS
 62
   191
100
AcDbLine
 10
53.705
 20
-71.976
 30
0.0
 11
54.685
 21
-71.976
 31
0.0
  0
LINE
  5
50C
100
AcDbEntity
  8
1
  6
CONTINUOUS
 62
   191
100
AcDbLine
 10
54.685
 20
-71.976
 30
0.0
 11
54.685
 21
-72.376
 31
0.0
  0
LINE
  5
50D
100
AcDbEntity
  8
1
  6
CONTINUOUS
 62
   191
100
AcDbLine
 10
53.705
 20
-77.126
 30
0.0
 11
53.705
 21
-77.526
 31
0.0
  0
LINE
  5
50E
100
AcDbEntity
  8
1
  6
CONTINUOUS
 62
   191
100
AcDbLine
 10
53.705
 20
-77.526
 30
0.0
 11
54.685
 21
-77.526
 31
0.0
  0
LINE
  5
50F
100
AcDbEntity
  8
1
  6
CONTINUOUS
 62
   191
100
AcDbLine
 10
54.685
 20
-77.126
 30
0.0
 11
54.685
 21
-77.526
 31
0.0
  0
LINE
  5
510
100
AcDbEntity
  8
1
  6
CONTINUOUS
 62
   191
100
AcDbLine
 10
52.0
 20
-45.376
 30
0.0
 11
57.0
 21
-45.376
 31
0.0
  0
LINE
  5
511
100
AcDbEntity
  8
1
  6
CONTINUOUS
 62
   191
100
AcDbLine
 10
52.0
 20
-45.376
 30
0.0
 11
52.0
 21
-50.126
 31
0.0
  0
LINE
  5
512
100
AcDbEntity
  8
1
  6
CONTINUOUS
 62
   191
100
AcDbLine
 10
52.0
 20
-50.126
 30
0.0
 11
57.0
 21
-50.126
 31
0.0
  0
LINE
  5
513
100
AcDbEntity
  8
1
  6
CONTINUOUS
 62
   191
100
AcDbLine
 10
52.0
 20
-77.126
 30
0.0
 11
57.0
 21
-77.126
 31
0.0
  0
LINE
  5
514
100
AcDbEntity
  8
1
  6
CONTINUOUS
 62
   191
100
AcDbLine
 10
52.0
 20
-72.376
 30
0.0
 11
52.0
 21
-77.126
 31
0.0
  0
LINE
  5
515
100
AcDbEntity
  8
1
  6
CONTINUOUS
 62
   191
100
AcDbLine
 10
52.0
 20
-72.376
 30
0.0
 11
57.0
 21
-72.376
 31
0.0
  0
LINE
  5
516
100
AcDbEntity
  8
1
  6
CONTINUOUS
 62
    80
100
AcDbLine
 10
51.75
 20
23.375
 30
0.0
 11
57.0
 21
23.375
 31
0.0
  0
LINE
  5
517
100
AcDbEntity
  8
1
  6
CONTINUOUS
 62
    80
100
AcDbLine
 10
51.75
 20
28.125
 30
0.0
 11
57.0
 21
28.125
 31
0.0
  0
LINE
  5
518
100
AcDbEntity
  8
1
  6
CONTINUOUS
 62
    80
100
AcDbLine
 10
51.75
 20
28.125
 30
0.0
 11
51.75
 21
23.375
 31
0.0
  0
LINE
  5
519
100
AcDbEntity
  8
1
  6
CONTINUOUS
 62
    80
100
AcDbLine
 10
53.37
 20
22.975
 30
0.0
 11
54.37
 21
22.975
 31
0.0
  0
LINE
  5
51A
100
AcDbEntity
  8
1
  6
CONTINUOUS
 62
    80
100
AcDbLine
 10
53.37
 20
28.525
 30
0.0
 11
54.37
 21
28.525
 31
0.0
  0
LINE
  5
51B
100
AcDbEntity
  8
1
  6
CONTINUOUS
 62
    80
100
AcDbLine
 10
53.37
 20
28.525
 30
0.0
 11
53.37
 21
28.125
 31
0.0
  0
LINE
  5
51C
100
AcDbEntity
  8
1
  6
CONTINUOUS
 62
    80
100
AcDbLine
 10
54.37
 20
28.525
 30
0.0
 11
54.37
 21
28.125
 31
0.0
  0
LINE
  5
51D
100
AcDbEntity
  8
1
  6
CONTINUOUS
 62
    80
100
AcDbLine
 10
53.37
 20
23.375
 30
0.0
 11
53.37
 21
22.975
 31
0.0
  0
LINE
  5
51E
100
AcDbEntity
  8
1
  6
CONTINUOUS
 62
    80
100
AcDbLine
 10
54.37
 20
23.375
 30
0.0
 11
54.37
 21
22.975
 31
0.0
  0
LINE
  5
51F
100
AcDbEntity
  8
1
  6
CONTINUOUS
 62
    80
100
AcDbLine
 10
51.75
 20
32.375
 30
0.0
 11
57.0
 21
32.375
 31
0.0
  0
LINE
  5
520
100
AcDbEntity
  8
1
  6
CONTINUOUS
 62
    80
100
AcDbLine
 10
51.75
 20
37.125
 30
0.0
 11
57.0
 21
37.125
 31
0.0
  0
LINE
  5
521
100
AcDbEntity
  8
1
  6
CONTINUOUS
 62
    80
100
AcDbLine
 10
51.75
 20
37.125
 30
0.0
 11
51.75
 21
32.375
 31
0.0
  0
LINE
  5
522
100
AcDbEntity
  8
1
  6
CONTINUOUS
 62
    80
100
AcDbLine
 10
53.37
 20
31.975
 30
0.0
 11
54.37
 21
31.975
 31
0.0
  0
LINE
  5
523
100
AcDbEntity
  8
1
  6
CONTINUOUS
 62
    80
100
AcDbLine
 10
53.37
 20
37.525
 30
0.0
 11
54.37
 21
37.525
 31
0.0
  0
LINE
  5
524
100
AcDbEntity
  8
1
  6
CONTINUOUS
 62
    80
100
AcDbLine
 10
53.37
 20
37.525
 30
0.0
 11
53.37
 21
37.125
 31
0.0
  0
LINE
  5
525
100
AcDbEntity
  8
1
  6
CONTINUOUS
 62
    80
100
AcDbLine
 10
54.37
 20
37.525
 30
0.0
 11
54.37
 21
37.125
 31
0.0
  0
LINE
  5
526
100
AcDbEntity
  8
1
  6
CONTINUOUS
 62
    80
100
AcDbLine
 10
53.37
 20
32.375
 30
0.0
 11
53.37
 21
31.975
 31
0.0
  0
LINE
  5
527
100
AcDbEntity
  8
1
  6
CONTINUOUS
 62
    80
100
AcDbLine
 10
54.37
 20
32.375
 30
0.0
 11
54.37
 21
31.975
 31
0.0
  0
LINE
  5
528
100
AcDbEntity
  8
1
  6
CONTINUOUS
 62
    80
100
AcDbLine
 10
51.75
 20
41.375
 30
0.0
 11
56.700654
 21
41.375
 31
0.0
  0
LINE
  5
529
100
AcDbEntity
  8
1
  6
CONTINUOUS
 62
    80
100
AcDbLine
 10
51.75
 20
46.125
 30
0.0
 11
57.0
 21
46.125
 31
0.0
  0
LINE
  5
52A
100
AcDbEntity
  8
1
  6
CONTINUOUS
 62
    80
100
AcDbLine
 10
51.75
 20
46.125
 30
0.0
 11
51.75
 21
41.375
 31
0.0
  0
LINE
  5
52B
100
AcDbEntity
  8
1
  6
CONTINUOUS
 62
    80
100
AcDbLine
 10
53.37
 20
40.975
 30
0.0
 11
54.37
 21
40.975
 31
0.0
  0
LINE
  5
52C
100
AcDbEntity
  8
1
  6
CONTINUOUS
 62
    80
100
AcDbLine
 10
53.37
 20
46.525
 30
0.0
 11
54.37
 21
46.525
 31
0.0
  0
LINE
  5
52D
100
AcDbEntity
  8
1
  6
CONTINUOUS
 62
    80
100
AcDbLine
 10
53.37
 20
46.525
 30
0.0
 11
53.37
 21
46.125
 31
0.0
  0
LINE
  5
52E
100
AcDbEntity
  8
1
  6
CONTINUOUS
 62
    80
100
AcDbLine
 10
54.37
 20
46.525
 30
0.0
 11
54.37
 21
46.125
 31
0.0
  0
LINE
  5
52F
100
AcDbEntity
  8
1
  6
CONTINUOUS
 62
    80
100
AcDbLine
 10
53.37
 20
41.375
 30
0.0
 11
53.37
 21
40.975
 31
0.0
  0
LINE
  5
530
100
AcDbEntity
  8
1
  6
CONTINUOUS
 62
    80
100
AcDbLine
 10
54.37
 20
41.375
 30
0.0
 11
54.37
 21
40.975
 31
0.0
  0
LINE
  5
531
100
AcDbEntity
  8
1
  6
CONTINUOUS
 62
    80
100
AcDbLine
 10
51.75
 20
50.375
 30
0.0
 11
57.0
 21
50.375
 31
0.0
  0
LINE
  5
532
100
AcDbEntity
  8
1
  6
CONTINUOUS
 62
    80
100
AcDbLine
 10
51.75
 20
55.125
 30
0.0
 11
57.0
 21
55.125
 31
0.0
  0
LINE
  5
533
100
AcDbEntity
  8
1
  6
CONTINUOUS
 62
    80
100
AcDbLine
 10
51.75
 20
55.125
 30
0.0
 11
51.75
 21
50.375
 31
0.0
  0
LINE
  5
534
100
AcDbEntity
  8
1
  6
CONTINUOUS
 62
    80
100
AcDbLine
 10
53.37
 20
49.975
 30
0.0
 11
54.37
 21
49.975
 31
0.0
  0
LINE
  5
535
100
AcDbEntity
  8
1
  6
CONTINUOUS
 62
    80
100
AcDbLine
 10
53.37
 20
55.525
 30
0.0
 11
54.37
 21
55.525
 31
0.0
  0
LINE
  5
536
100
AcDbEntity
  8
1
  6
CONTINUOUS
 62
    80
100
AcDbLine
 10
53.37
 20
55.525
 30
0.0
 11
53.37
 21
55.125
 31
0.0
  0
LINE
  5
537
100
AcDbEntity
  8
1
  6
CONTINUOUS
 62
    80
100
AcDbLine
 10
54.37
 20
55.525
 30
0.0
 11
54.37
 21
55.125
 31
0.0
  0
LINE
  5
538
100
AcDbEntity
  8
1
  6
CONTINUOUS
 62
    80
100
AcDbLine
 10
53.37
 20
50.375
 30
0.0
 11
53.37
 21
49.975
 31
0.0
  0
LINE
  5
539
100
AcDbEntity
  8
1
  6
CONTINUOUS
 62
    80
100
AcDbLine
 10
54.37
 20
50.375
 30
0.0
 11
54.37
 21
49.975
 31
0.0
  0
LINE
  5
53A
100
AcDbEntity
  8
1
  6
CONTINUOUS
 62
    80
100
AcDbLine
 10
51.75
 20
59.375
 30
0.0
 11
57.0
 21
59.375
 31
0.0
  0
LINE
  5
53B
100
AcDbEntity
  8
1
  6
CONTINUOUS
 62
    80
100
AcDbLine
 10
51.75
 20
64.125
 30
0.0
 11
57.0
 21
64.125
 31
0.0
  0
LINE
  5
53C
100
AcDbEntity
  8
1
  6
CONTINUOUS
 62
    80
100
AcDbLine
 10
51.75
 20
64.125
 30
0.0
 11
51.75
 21
59.375
 31
0.0
  0
LINE
  5
53D
100
AcDbEntity
  8
1
  6
CONTINUOUS
 62
    80
100
AcDbLine
 10
53.37
 20
58.975
 30
0.0
 11
54.37
 21
58.975
 31
0.0
  0
LINE
  5
53E
100
AcDbEntity
  8
1
  6
CONTINUOUS
 62
    80
100
AcDbLine
 10
53.37
 20
64.525
 30
0.0
 11
54.37
 21
64.525
 31
0.0
  0
LINE
  5
53F
100
AcDbEntity
  8
1
  6
CONTINUOUS
 62
    80
100
AcDbLine
 10
53.37
 20
64.525
 30
0.0
 11
53.37
 21
64.125
 31
0.0
  0
LINE
  5
540
100
AcDbEntity
  8
1
  6
CONTINUOUS
 62
    80
100
AcDbLine
 10
54.37
 20
64.525
 30
0.0
 11
54.37
 21
64.125
 31
0.0
  0
LINE
  5
541
100
AcDbEntity
  8
1
  6
CONTINUOUS
 62
    80
100
AcDbLine
 10
53.37
 20
59.375
 30
0.0
 11
53.37
 21
58.975
 31
0.0
  0
LINE
  5
542
100
AcDbEntity
  8
1
  6
CONTINUOUS
 62
    80
100
AcDbLine
 10
54.37
 20
59.375
 30
0.0
 11
54.37
 21
58.975
 31
0.0
  0
LINE
  5
543
100
AcDbEntity
  8
1
  6
CONTINUOUS
 62
    80
100
AcDbLine
 10
51.75
 20
68.375
 30
0.0
 11
56.700654
 21
68.375
 31
0.0
  0
LINE
  5
544
100
AcDbEntity
  8
1
  6
CONTINUOUS
 62
    80
100
AcDbLine
 10
51.75
 20
73.125
 30
0.0
 11
57.0
 21
73.125
 31
0.0
  0
LINE
  5
545
100
AcDbEntity
  8
1
  6
CONTINUOUS
 62
    80
100
AcDbLine
 10
51.75
 20
73.125
 30
0.0
 11
51.75
 21
68.375
 31
0.0
  0
LINE
  5
546
100
AcDbEntity
  8
1
  6
CONTINUOUS
 62
    80
100
AcDbLine
 10
53.37
 20
67.975
 30
0.0
 11
54.37
 21
67.975
 31
0.0
  0
LINE
  5
547
100
AcDbEntity
  8
1
  6
CONTINUOUS
 62
    80
100
AcDbLine
 10
53.37
 20
73.525
 30
0.0
 11
54.37
 21
73.525
 31
0.0
  0
LINE
  5
548
100
AcDbEntity
  8
1
  6
CONTINUOUS
 62
    80
100
AcDbLine
 10
53.37
 20
73.525
 30
0.0
 11
53.37
 21
73.125
 31
0.0
  0
LINE
  5
549
100
AcDbEntity
  8
1
  6
CONTINUOUS
 62
    80
100
AcDbLine
 10
54.37
 20
73.525
 30
0.0
 11
54.37
 21
73.125
 31
0.0
  0
LINE
  5
54A
100
AcDbEntity
  8
1
  6
CONTINUOUS
 62
    80
100
AcDbLine
 10
53.37
 20
68.375
 30
0.0
 11
53.37
 21
67.975
 31
0.0
  0
LINE
  5
54B
100
AcDbEntity
  8
1
  6
CONTINUOUS
 62
    80
100
AcDbLine
 10
54.37
 20
68.375
 30
0.0
 11
54.37
 21
67.975
 31
0.0
  0
LINE
  5
54C
100
AcDbEntity
  8
1
  6
CONTINUOUS
 62
    80
100
AcDbLine
 10
51.75
 20
77.375
 30
0.0
 11
57.0
 21
77.375
 31
0.0
  0
LINE
  5
54D
100
AcDbEntity
  8
1
  6
CONTINUOUS
 62
    80
100
AcDbLine
 10
51.75
 20
82.125
 30
0.0
 11
57.0
 21
82.125
 31
0.0
  0
LINE
  5
54E
100
AcDbEntity
  8
1
  6
CONTINUOUS
 62
    80
100
AcDbLine
 10
51.75
 20
82.125
 30
0.0
 11
51.75
 21
77.375
 31
0.0
  0
LINE
  5
54F
100
AcDbEntity
  8
1
  6
CONTINUOUS
 62
    80
100
AcDbLine
 10
53.37
 20
76.975
 30
0.0
 11
54.37
 21
76.975
 31
0.0
  0
LINE
  5
550
100
AcDbEntity
  8
1
  6
CONTINUOUS
 62
    80
100
AcDbLine
 10
53.37
 20
82.525
 30
0.0
 11
54.37
 21
82.525
 31
0.0
  0
LINE
  5
551
100
AcDbEntity
  8
1
  6
CONTINUOUS
 62
    80
100
AcDbLine
 10
53.37
 20
82.525
 30
0.0
 11
53.37
 21
82.125
 31
0.0
  0
LINE
  5
552
100
AcDbEntity
  8
1
  6
CONTINUOUS
 62
    80
100
AcDbLine
 10
54.37
 20
82.525
 30
0.0
 11
54.37
 21
82.125
 31
0.0
  0
LINE
  5
553
100
AcDbEntity
  8
1
  6
CONTINUOUS
 62
    80
100
AcDbLine
 10
53.37
 20
77.375
 30
0.0
 11
53.37
 21
76.975
 31
0.0
  0
LINE
  5
554
100
AcDbEntity
  8
1
  6
CONTINUOUS
 62
    80
100
AcDbLine
 10
54.37
 20
77.375
 30
0.0
 11
54.37
 21
76.975
 31
0.0
  0
LINE
  5
555
100
AcDbEntity
  8
1
  6
CONTINUOUS
 62
    80
100
AcDbLine
 10
51.75
 20
86.375
 30
0.0
 11
57.0
 21
86.375
 31
0.0
  0
LINE
  5
556
100
AcDbEntity
  8
1
  6
CONTINUOUS
 62
    80
100
AcDbLine
 10
51.75
 20
91.125
 30
0.0
 11
57.0
 21
91.125
 31
0.0
  0
LINE
  5
557
100
AcDbEntity
  8
1
  6
CONTINUOUS
 62
    80
100
AcDbLine
 10
51.75
 20
91.125
 30
0.0
 11
51.75
 21
86.375
 31
0.0
  0
LINE
  5
558
100
AcDbEntity
  8
1
  6
CONTINUOUS
 62
    80
100
AcDbLine
 10
53.37
 20
85.975
 30
0.0
 11
54.37
 21
85.975
 31
0.0
  0
LINE
  5
559
100
AcDbEntity
  8
1
  6
CONTINUOUS
 62
    80
100
AcDbLine
 10
53.37
 20
91.525
 30
0.0
 11
54.37
 21
91.525
 31
0.0
  0
LINE
  5
55A
100
AcDbEntity
  8
1
  6
CONTINUOUS
 62
    80
100
AcDbLine
 10
53.37
 20
91.525
 30
0.0
 11
53.37
 21
91.125
 31
0.0
  0
LINE
  5
55B
100
AcDbEntity
  8
1
  6
CONTINUOUS
 62
    80
100
AcDbLine
 10
54.37
 20
91.525
 30
0.0
 11
54.37
 21
91.125
 31
0.0
  0
LINE
  5
55C
100
AcDbEntity
  8
1
  6
CONTINUOUS
 62
    80
100
AcDbLine
 10
53.37
 20
86.375
 30
0.0
 11
53.37
 21
85.975
 31
0.0
  0
LINE
  5
55D
100
AcDbEntity
  8
1
  6
CONTINUOUS
 62
    80
100
AcDbLine
 10
54.37
 20
86.375
 30
0.0
 11
54.37
 21
85.975
 31
0.0
  0
LINE
  5
55E
100
AcDbEntity
  8
1
  6
CONTINUOUS
 62
    80
100
AcDbLine
 10
51.75025
 20
155.7235
 30
0.0
 11
51.75025
 21
150.9735
 31
0.0
  0
LINE
  5
55F
100
AcDbEntity
  8
1
  6
CONTINUOUS
 62
    80
100
AcDbLine
 10
51.75025
 20
150.9735
 30
0.0
 11
56.5
 21
150.9735
 31
0.0
  0
LINE
  5
560
100
AcDbEntity
  8
1
  6
CONTINUOUS
 62
    80
100
AcDbLine
 10
51.75025
 20
155.7235
 30
0.0
 11
55.5
 21
155.7235
 31
0.0
  0
CIRCLE
  5
561
100
AcDbEntity
  8
1
  6
CONTINUOUS
 62
    80
100
AcDbCircle
 10
53.87025
 20
153.3485
 30
0.0
 40
0.5
  0
LINE
  5
562
100
AcDbEntity
  8
1
  6
CONTINUOUS
 62
    80
100
AcDbLine
 10
51.75025
 20
159.4735
 30
0.0
 11
55.5
 21
159.4735
 31
0.0
  0
LINE
  5
563
100
AcDbEntity
  8
1
  6
CONTINUOUS
 62
    80
100
AcDbLine
 10
51.75025
 20
164.2235
 30
0.0
 11
51.75025
 21
159.4735
 31
0.0
  0
CIRCLE
  5
564
100
AcDbEntity
  8
1
  6
CONTINUOUS
 62
   160
100
AcDbCircle
 10
62.50025
 20
165.4985
 30
0.0
 40
1.5
  0
CIRCLE
  5
565
100
AcDbEntity
  8
1
  6
CONTINUOUS
 62
   160
100
AcDbCircle
 10
62.50025
 20
165.4985
 30
0.0
 40
1.35
  0
ARC
  5
566
100
AcDbEntity
  8
1
  6
CONTINUOUS
 62
   160
100
AcDbCircle
 10
62.50025
 20
164.8095
 30
0.0
 40
0.3
100
AcDbArc
 50
45.0
 51
135.0
  0
ARC
  5
567
100
AcDbEntity
  8
1
  6
CONTINUOUS
 62
   160
100
AcDbCircle
 10
61.81125
 20
165.4985
 30
0.0
 40
0.3
100
AcDbArc
 50
315.0
 51
45.0
  0
ARC
  5
568
100
AcDbEntity
  8
1
  6
CONTINUOUS
 62
   160
100
AcDbCircle
 10
62.50025
 20
166.1885
 30
0.0
 40
0.3
100
AcDbArc
 50
225.0
 51
315.0
  0
ARC
  5
569
100
AcDbEntity
  8
1
  6
CONTINUOUS
 62
   160
100
AcDbCircle
 10
63.18925
 20
165.4985
 30
0.0
 40
0.3
100
AcDbArc
 50
135.0
 51
225.0
  0
CIRCLE
  5
56A
100
AcDbEntity
  8
1
  6
CONTINUOUS
 62
   160
100
AcDbCircle
 10
62.50025
 20
166.1885
 30
0.0
 40
0.15
  0
LINE
  5
56B
100
AcDbEntity
  8
1
  6
CONTINUOUS
 62
   160
100
AcDbLine
 10
62.28825
 20
165.0215
 30
0.0
 11
62.10225
 21
164.8355
 31
0.0
  0
LINE
  5
56C
100
AcDbEntity
  8
1
  6
CONTINUOUS
 62
   160
100
AcDbLine
 10
63.16325
 20
165.8965
 30
0.0
 11
62.97725
 21
165.7105
 31
0.0
  0
LINE
  5
56D
100
AcDbEntity
  8
1
  6
CONTINUOUS
 62
   160
100
AcDbLine
 10
62.71225
 20
165.0215
 30
0.0
 11
62.89825
 21
164.8355
 31
0.0
  0
LINE
  5
56E
100
AcDbEntity
  8
1
  6
CONTINUOUS
 62
   160
100
AcDbLine
 10
61.83725
 20
165.8965
 30
0.0
 11
62.02325
 21
165.7105
 31
0.0
  0
LINE
  5
56F
100
AcDbEntity
  8
1
  6
CONTINUOUS
 62
   160
100
AcDbLine
 10
62.02325
 20
165.2865
 30
0.0
 11
61.83725
 21
165.1015
 31
0.0
  0
LINE
  5
570
100
AcDbEntity
  8
1
  6
CONTINUOUS
 62
   160
100
AcDbLine
 10
62.89825
 20
166.1615
 30
0.0
 11
62.71225
 21
165.9765
 31
0.0
  0
LINE
  5
571
100
AcDbEntity
  8
1
  6
CONTINUOUS
 62
   160
100
AcDbLine
 10
62.97725
 20
165.2865
 30
0.0
 11
63.16325
 21
165.1015
 31
0.0
  0
LINE
  5
572
100
AcDbEntity
  8
1
  6
CONTINUOUS
 62
   160
100
AcDbLine
 10
62.10225
 20
166.1615
 30
0.0
 11
62.28825
 21
165.9765
 31
0.0
  0
LINE
  5
573
100
AcDbEntity
  8
1
  6
CONTINUOUS
 62
   160
100
AcDbLine
 10
62.89825
 20
166.1615
 30
0.0
 11
63.16325
 21
165.8965
 31
0.0
  0
LINE
  5
574
100
AcDbEntity
  8
1
  6
CONTINUOUS
 62
   160
100
AcDbLine
 10
61.83725
 20
165.1015
 30
0.0
 11
62.10225
 21
164.8355
 31
0.0
  0
LINE
  5
575
100
AcDbEntity
  8
1
  6
CONTINUOUS
 62
   160
100
AcDbLine
 10
62.10225
 20
166.1615
 30
0.0
 11
61.83725
 21
165.8965
 31
0.0
  0
LINE
  5
576
100
AcDbEntity
  8
1
  6
CONTINUOUS
 62
   160
100
AcDbLine
 10
63.16325
 20
165.1015
 30
0.0
 11
62.89825
 21
164.8355
 31
0.0
  0
CIRCLE
  5
577
100
AcDbEntity
  8
1
  6
CONTINUOUS
 62
    80
100
AcDbCircle
 10
53.87025
 20
161.8485
 30
0.0
 40
0.5
  0
LINE
  5
578
100
AcDbEntity
  8
1
  6
CONTINUOUS
 62
    80
100
AcDbLine
 10
51.75025
 20
164.2235
 30
0.0
 11
55.5
 21
164.2235
 31
0.0
  0
LINE
  5
579
100
AcDbEntity
  8
1
  6
CONTINUOUS
 62
   160
100
AcDbLine
 10
174.88425
 20
164.9685
 30
0.0
 11
174.53025
 21
164.6155
 31
0.0
  0
LINE
  5
57A
100
AcDbEntity
  8
1
  6
CONTINUOUS
 62
   160
100
AcDbLine
 10
173.46925
 20
166.3835
 30
0.0
 11
173.11625
 21
166.0295
 31
0.0
  0
LINE
  5
57B
100
AcDbEntity
  8
1
  6
CONTINUOUS
 62
   160
100
AcDbLine
 10
173.11625
 20
164.9685
 30
0.0
 11
173.46925
 21
164.6155
 31
0.0
  0
LINE
  5
57C
100
AcDbEntity
  8
1
  6
CONTINUOUS
 62
   160
100
AcDbLine
 10
174.53025
 20
166.3835
 30
0.0
 11
174.88425
 21
166.0295
 31
0.0
  0
LINE
  5
57D
100
AcDbEntity
  8
1
  6
CONTINUOUS
 62
   160
100
AcDbLine
 10
173.46925
 20
166.3835
 30
0.0
 11
173.71725
 21
166.1355
 31
0.0
  0
LINE
  5
57E
100
AcDbEntity
  8
1
  6
CONTINUOUS
 62
   160
100
AcDbLine
 10
174.63625
 20
165.2165
 30
0.0
 11
174.88425
 21
164.9685
 31
0.0
  0
LINE
  5
57F
100
AcDbEntity
  8
1
  6
CONTINUOUS
 62
   160
100
AcDbLine
 10
174.53025
 20
166.3835
 30
0.0
 11
174.28325
 21
166.1355
 31
0.0
  0
LINE
  5
580
100
AcDbEntity
  8
1
  6
CONTINUOUS
 62
   160
100
AcDbLine
 10
173.36325
 20
165.2165
 30
0.0
 11
173.11625
 21
164.9685
 31
0.0
  0
LINE
  5
581
100
AcDbEntity
  8
1
  6
CONTINUOUS
 62
   160
100
AcDbLine
 10
173.11625
 20
166.0295
 30
0.0
 11
173.36325
 21
165.7825
 31
0.0
  0
LINE
  5
582
100
AcDbEntity
  8
1
  6
CONTINUOUS
 62
   160
100
AcDbLine
 10
174.28325
 20
164.8625
 30
0.0
 11
174.53025
 21
164.6155
 31
0.0
  0
LINE
  5
583
100
AcDbEntity
  8
1
  6
CONTINUOUS
 62
   160
100
AcDbLine
 10
174.88425
 20
166.0295
 30
0.0
 11
174.63625
 21
165.7825
 31
0.0
  0
LINE
  5
584
100
AcDbEntity
  8
1
  6
CONTINUOUS
 62
   160
100
AcDbLine
 10
173.71725
 20
164.8625
 30
0.0
 11
173.46925
 21
164.6155
 31
0.0
  0
CIRCLE
  5
585
100
AcDbEntity
  8
1
  6
CONTINUOUS
 62
   160
100
AcDbCircle
 10
173.99925
 20
166.4185
 30
0.0
 40
0.2
  0
ARC
  5
586
100
AcDbEntity
  8
1
  6
CONTINUOUS
 62
   160
100
AcDbCircle
 10
174.91925
 20
165.4995
 30
0.0
 40
0.4
100
AcDbArc
 50
135.0
 51
225.0
  0
ARC
  5
587
100
AcDbEntity
  8
1
  6
CONTINUOUS
 62
   160
100
AcDbCircle
 10
174.00025
 20
166.4185
 30
0.0
 40
0.4
100
AcDbArc
 50
225.0
 51
315.0
  0
ARC
  5
588
100
AcDbEntity
  8
1
  6
CONTINUOUS
 62
   160
100
AcDbCircle
 10
173.08125
 20
165.4995
 30
0.0
 40
0.4
100
AcDbArc
 50
314.898591
 51
45.1014
  0
ARC
  5
589
100
AcDbEntity
  8
1
  6
CONTINUOUS
 62
   160
100
AcDbCircle
 10
174.00025
 20
164.5805
 30
0.0
 40
0.4
100
AcDbArc
 50
44.89859
 51
135.1014
  0
CIRCLE
  5
58A
100
AcDbEntity
  8
1
  6
CONTINUOUS
 62
   160
100
AcDbCircle
 10
174.00025
 20
165.4995
 30
0.0
 40
1.8
  0
CIRCLE
  5
58B
100
AcDbEntity
  8
1
  6
CONTINUOUS
 62
   160
100
AcDbCircle
 10
174.00025
 20
165.4995
 30
0.0
 40
2.0
  0
LINE
  5
58C
100
AcDbEntity
  8
1
  6
CONTINUOUS
 62
   160
100
AcDbLine
 10
174.884
 20
150.9685
 30
0.0
 11
174.53
 21
150.6155
 31
0.0
  0
LINE
  5
58D
100
AcDbEntity
  8
1
  6
CONTINUOUS
 62
   160
100
AcDbLine
 10
173.469
 20
152.3835
 30
0.0
 11
173.116
 21
152.0295
 31
0.0
  0
LINE
  5
58E
100
AcDbEntity
  8
1
  6
CONTINUOUS
 62
   160
100
AcDbLine
 10
173.116
 20
150.9685
 30
0.0
 11
173.469
 21
150.6155
 31
0.0
  0
LINE
  5
58F
100
AcDbEntity
  8
1
  6
CONTINUOUS
 62
   160
100
AcDbLine
 10
174.53
 20
152.3835
 30
0.0
 11
174.884
 21
152.0295
 31
0.0
  0
LINE
  5
590
100
AcDbEntity
  8
1
  6
CONTINUOUS
 62
   160
100
AcDbLine
 10
173.469
 20
152.3835
 30
0.0
 11
173.717
 21
152.1355
 31
0.0
  0
LINE
  5
591
100
AcDbEntity
  8
1
  6
CONTINUOUS
 62
   160
100
AcDbLine
 10
174.636
 20
151.2165
 30
0.0
 11
174.884
 21
150.9685
 31
0.0
  0
LINE
  5
592
100
AcDbEntity
  8
1
  6
CONTINUOUS
 62
   160
100
AcDbLine
 10
174.53
 20
152.3835
 30
0.0
 11
174.283
 21
152.1355
 31
0.0
  0
LINE
  5
593
100
AcDbEntity
  8
1
  6
CONTINUOUS
 62
   160
100
AcDbLine
 10
173.363
 20
151.2165
 30
0.0
 11
173.116
 21
150.9685
 31
0.0
  0
LINE
  5
594
100
AcDbEntity
  8
1
  6
CONTINUOUS
 62
   160
100
AcDbLine
 10
173.116
 20
152.0295
 30
0.0
 11
173.363
 21
151.7825
 31
0.0
  0
LINE
  5
595
100
AcDbEntity
  8
1
  6
CONTINUOUS
 62
   160
100
AcDbLine
 10
174.283
 20
150.8625
 30
0.0
 11
174.53
 21
150.6155
 31
0.0
  0
LINE
  5
596
100
AcDbEntity
  8
1
  6
CONTINUOUS
 62
   160
100
AcDbLine
 10
174.884
 20
152.0295
 30
0.0
 11
174.636
 21
151.7825
 31
0.0
  0
LINE
  5
597
100
AcDbEntity
  8
1
  6
CONTINUOUS
 62
   160
100
AcDbLine
 10
173.717
 20
150.8625
 30
0.0
 11
173.469
 21
150.6155
 31
0.0
  0
CIRCLE
  5
598
100
AcDbEntity
  8
1
  6
CONTINUOUS
 62
   160
100
AcDbCircle
 10
173.999
 20
152.4185
 30
0.0
 40
0.2
  0
ARC
  5
599
100
AcDbEntity
  8
1
  6
CONTINUOUS
 62
   160
100
AcDbCircle
 10
174.919
 20
151.4995
 30
0.0
 40
0.4
100
AcDbArc
 50
135.0
 51
225.0
  0
ARC
  5
59A
100
AcDbEntity
  8
1
  6
CONTINUOUS
 62
   160
100
AcDbCircle
 10
174.0
 20
152.4185
 30
0.0
 40
0.4
100
AcDbArc
 50
225.0
 51
315.0
  0
ARC
  5
59B
100
AcDbEntity
  8
1
  6
CONTINUOUS
 62
   160
100
AcDbCircle
 10
173.081
 20
151.4995
 30
0.0
 40
0.4
100
AcDbArc
 50
314.898591
 51
45.1014
  0
ARC
  5
59C
100
AcDbEntity
  8
1
  6
CONTINUOUS
 62
   160
100
AcDbCircle
 10
174.0
 20
150.5805
 30
0.0
 40
0.4
100
AcDbArc
 50
44.89859
 51
135.1014
  0
CIRCLE
  5
59D
100
AcDbEntity
  8
1
  6
CONTINUOUS
 62
   160
100
AcDbCircle
 10
174.0
 20
151.4995
 30
0.0
 40
1.8
  0
CIRCLE
  5
59E
100
AcDbEntity
  8
1
  6
CONTINUOUS
 62
   160
100
AcDbCircle
 10
174.0
 20
151.4995
 30
0.0
 40
2.0
  0
LINE
  5
59F
100
AcDbEntity
  8
1
  6
CONTINUOUS
 62
    80
100
AcDbLine
 10
54.95
 20
-45.376
 30
0.0
 11
54.95
 21
-43.25
 31
0.0
  0
LINE
  5
5A0
100
AcDbEntity
  8
1
  6
CONTINUOUS
 62
    80
100
AcDbLine
 10
54.95
 20
-43.25
 30
0.0
 11
57.0
 21
-43.25
 31
0.0
  0
LINE
  5
5A1
100
AcDbEntity
  8
1
  6
CONTINUOUS
 62
    80
100
AcDbLine
 10
54.95
 20
-44.5
 30
0.0
 11
57.0
 21
-44.5
 31
0.0
  0
LINE
  5
5A2
100
AcDbEntity
  8
1
  6
CONTINUOUS
 62
    80
100
AcDbLine
 10
54.95
 20
-68.126
 30
0.0
 11
54.95
 21
-69.245
 31
0.0
  0
LINE
  5
5A3
100
AcDbEntity
  8
1
  6
CONTINUOUS
 62
    80
100
AcDbLine
 10
54.95
 20
-69.245
 30
0.0
 11
57.0
 21
-69.245
 31
0.0
  0
LINE
  5
5A4
100
AcDbEntity
  8
1
  6
CONTINUOUS
 62
    80
100
AcDbLine
 10
51.75
 20
95.375
 30
0.0
 11
56.700654
 21
95.375
 31
0.0
  0
LINE
  5
5A5
100
AcDbEntity
  8
1
  6
CONTINUOUS
 62
    80
100
AcDbLine
 10
51.75
 20
100.125
 30
0.0
 11
57.0
 21
100.125
 31
0.0
  0
LINE
  5
5A6
100
AcDbEntity
  8
1
  6
CONTINUOUS
 62
    80
100
AcDbLine
 10
51.75
 20
100.125
 30
0.0
 11
51.75
 21
95.375
 31
0.0
  0
LINE
  5
5A7
100
AcDbEntity
  8
1
  6
CONTINUOUS
 62
    80
100
AcDbLine
 10
53.37
 20
94.975
 30
0.0
 11
54.37
 21
94.975
 31
0.0
  0
LINE
  5
5A8
100
AcDbEntity
  8
1
  6
CONTINUOUS
 62
    80
100
AcDbLine
 10
53.37
 20
100.525
 30
0.0
 11
54.37
 21
100.525
 31
0.0
  0
LINE
  5
5A9
100
AcDbEntity
  8
1
  6
CONTINUOUS
 62
    80
100
AcDbLine
 10
53.37
 20
100.525
 30
0.0
 11
53.37
 21
100.125
 31
0.0
  0
LINE
  5
5AA
100
AcDbEntity
  8
1
  6
CONTINUOUS
 62
    80
100
AcDbLine
 10
54.37
 20
100.525
 30
0.0
 11
54.37
 21
100.125
 31
0.0
  0
LINE
  5
5AB
100
AcDbEntity
  8
1
  6
CONTINUOUS
 62
    80
100
AcDbLine
 10
53.37
 20
95.375
 30
0.0
 11
53.37
 21
94.975
 31
0.0
  0
LINE
  5
5AC
100
AcDbEntity
  8
1
  6
CONTINUOUS
 62
    80
100
AcDbLine
 10
54.37
 20
95.375
 30
0.0
 11
54.37
 21
94.975
 31
0.0
  0
ARC
  5
5AD
100
AcDbEntity
  8
1
  6
CONTINUOUS
 62
    30
100
AcDbCircle
 10
178.5
 20
-87.0
 30
0.0
 40
0.5
100
AcDbArc
 50
180.0
 51
270.0
  0
ARC
  5
5AE
100
AcDbEntity
  8
1
  6
CONTINUOUS
 62
    30
100
AcDbCircle
 10
182.0
 20
-87.0
 30
0.0
 40
0.5
100
AcDbArc
 50
270.0
 51
0.0
  0
ARC
  5
5AF
100
AcDbEntity
  8
1
  6
CONTINUOUS
 62
    30
100
AcDbCircle
 10
178.5
 20
122.0
 30
0.0
 40
0.5
100
AcDbArc
 50
90.0
 51
180.0
  0
ARC
  5
5B0
100
AcDbEntity
  8
1
  6
CONTINUOUS
 62
    30
100
AcDbCircle
 10
182.0
 20
122.0
 30
0.0
 40
0.5
100
AcDbArc
 50
0.0
 51
90.0
  0
LINE
  5
5B1
100
AcDbEntity
  8
1
  6
CONTINUOUS
 62
    30
100
AcDbLine
 10
182.0
 20
122.5
 30
0.0
 11
178.5
 21
122.5
 31
0.0
  0
LINE
  5
5B2
100
AcDbEntity
  8
1
  6
CONTINUOUS
 62
    30
100
AcDbLine
 10
178.0
 20
122.0
 30
0.0
 11
178.0
 21
-87.0
 31
0.0
  0
LINE
  5
5B3
100
AcDbEntity
  8
1
  6
CONTINUOUS
 62
    30
100
AcDbLine
 10
182.0
 20
-87.5
 30
0.0
 11
178.5
 21
-87.5
 31
0.0
  0
LINE
  5
5B4
100
AcDbEntity
  8
1
  6
CONTINUOUS
 62
    30
100
AcDbLine
 10
182.5
 20
122.0
 30
0.0
 11
182.5
 21
-87.0
 31
0.0
  0
ARC
  5
5B5
100
AcDbEntity
  8
1
  6
CONTINUOUS
 62
    30
100
AcDbCircle
 10
182.0
 20
-133.9995
 30
0.0
 40
0.5
100
AcDbArc
 50
270.0
 51
0.0
  0
ARC
  5
5B6
100
AcDbEntity
  8
1
  6
CONTINUOUS
 62
    30
100
AcDbCircle
 10
182.0
 20
-112.9995
 30
0.0
 40
0.5
100
AcDbArc
 50
0.0
 51
90.0
  0
LINE
  5
5B7
100
AcDbEntity
  8
1
  6
CONTINUOUS
 62
    30
100
AcDbLine
 10
178.0
 20
-133.9995
 30
0.0
 11
178.0
 21
-112.9995
 31
0.0
  0
LINE
  5
5B8
100
AcDbEntity
  8
1
  6
CONTINUOUS
 62
    30
100
AcDbLine
 10
178.5
 20
-112.4995
 30
0.0
 11
182.0
 21
-112.4995
 31
0.0
  0
LINE
  5
5B9
100
AcDbEntity
  8
1
  6
CONTINUOUS
 62
    30
100
AcDbLine
 10
178.5
 20
-134.4995
 30
0.0
 11
182.0
 21
-134.4995
 31
0.0
  0
ARC
  5
5BA
100
AcDbEntity
  8
1
  6
CONTINUOUS
 62
    30
100
AcDbCircle
 10
178.5
 20
-133.9995
 30
0.0
 40
0.5
100
AcDbArc
 50
180.0
 51
270.0
  0
ARC
  5
5BB
100
AcDbEntity
  8
1
  6
CONTINUOUS
 62
    30
100
AcDbCircle
 10
178.5
 20
-112.9995
 30
0.0
 40
0.5
100
AcDbArc
 50
90.0
 51
180.0
  0
LINE
  5
5BC
100
AcDbEntity
  8
1
  6
CONTINUOUS
 62
    30
100
AcDbLine
 10
182.5
 20
-133.9995
 30
0.0
 11
182.5
 21
-112.9995
 31
0.0
  0
LINE
  5
5BD
100
AcDbEntity
  8
1
  6
CONTINUOUS
 62
    50
100
AcDbLine
 10
178.0
 20
122.5
 30
0.0
 11
178.0
 21
-87.5
 31
0.0
  0
LINE
  5
5BE
100
AcDbEntity
  8
1
  6
CONTINUOUS
 62
    50
100
AcDbLine
 10
57.5
 20
-87.5
 30
0.0
 11
178.0
 21
-87.5
 31
0.0
  0
LINE
  5
5BF
100
AcDbEntity
  8
1
  6
CONTINUOUS
 62
    50
100
AcDbLine
 10
57.5
 20
122.5
 30
0.0
 11
178.0
 21
122.5
 31
0.0
  0
CIRCLE
  5
5C0
100
AcDbEntity
  8
1
  6
CONTINUOUS
 62
    50
100
AcDbCircle
 10
61.5
 20
70.0
 30
0.0
 40
1.625
  0
CIRCLE
  5
5C1
100
AcDbEntity
  8
1
  6
CONTINUOUS
 62
    50
100
AcDbCircle
 10
61.5
 20
-35.0
 30
0.0
 40
1.625
  0
CIRCLE
  5
5C2
100
AcDbEntity
  8
1
  6
CONTINUOUS
 62
    50
100
AcDbCircle
 10
174.0
 20
70.0
 30
0.0
 40
1.625
  0
CIRCLE
  5
5C3
100
AcDbEntity
  8
1
  6
CONTINUOUS
 62
    50
100
AcDbCircle
 10
174.0
 20
-35.0
 30
0.0
 40
1.625
  0
LINE
  5
5C4
100
AcDbEntity
  8
1
  6
CONTINUOUS
 62
    50
100
AcDbLine
 10
178.00025
 20
-112.499586
 30
0.0
 11
57.500248
 21
-112.5
 31
0.0
  0
LINE
  5
5C5
100
AcDbEntity
  8
1
  6
CONTINUOUS
 62
    50
100
AcDbLine
 10
178.00025
 20
-133.9995
 30
0.0
 11
177.50025
 21
-134.4995
 31
0.0
  0
LINE
  5
5C6
100
AcDbEntity
  8
1
  6
CONTINUOUS
 62
    50
100
AcDbLine
 10
57.00025
 20
-134.4995
 30
0.0
 11
177.50025
 21
-134.4995
 31
0.0
  0
LINE
  5
5C7
100
AcDbEntity
  8
1
  6
CONTINUOUS
 62
    50
100
AcDbLine
 10
178.00025
 20
-112.499586
 30
0.0
 11
178.00025
 21
-133.9995
 31
0.0
  0
LINE
  5
5C8
100
AcDbEntity
  8
1
  6
CONTINUOUS
 62
    50
100
AcDbLine
 10
178.00025
 20
147.499586
 30
0.0
 11
57.500248
 21
147.5
 31
0.0
  0
LINE
  5
5C9
100
AcDbEntity
  8
1
  6
CONTINUOUS
 62
    50
100
AcDbLine
 10
178.00025
 20
147.499586
 30
0.0
 11
178.00025
 21
168.9995
 31
0.0
  0
LINE
  5
5CA
100
AcDbEntity
  8
1
  6
CONTINUOUS
 62
    50
100
AcDbLine
 10
57.00025
 20
169.4995
 30
0.0
 11
177.50025
 21
169.4995
 31
0.0
  0
LINE
  5
5CB
100
AcDbEntity
  8
1
  6
CONTINUOUS
 62
    50
100
AcDbLine
 10
178.00025
 20
168.9995
 30
0.0
 11
177.50025
 21
169.4995
 31
0.0
  0
LINE
  5
5CC
100
AcDbEntity
  8
1
  6
CONTINUOUS
 62
    80
100
AcDbLine
 10
183.5
 20
110.0485
 30
0.0
 11
185.15
 21
110.0485
 31
0.0
  0
LINE
  5
5CD
100
AcDbEntity
  8
1
  6
CONTINUOUS
 62
    80
100
AcDbLine
 10
185.15
 20
110.0485
 30
0.0
 11
185.15
 21
114.9485
 31
0.0
  0
LINE
  5
5CE
100
AcDbEntity
  8
1
  6
CONTINUOUS
 62
    80
100
AcDbLine
 10
183.5
 20
114.9485
 30
0.0
 11
185.15
 21
114.9485
 31
0.0
  0
LINE
  5
5CF
100
AcDbEntity
  8
1
  6
CONTINUOUS
 62
    50
100
AcDbLine
 10
182.5
 20
118.2485
 30
0.0
 11
185.25
 21
118.2485
 31
0.0
  0
LINE
  5
5D0
100
AcDbEntity
  8
1
  6
CONTINUOUS
 62
    50
100
AcDbLine
 10
185.25
 20
116.2485
 30
0.0
 11
185.25
 21
118.2485
 31
0.0
  0
LINE
  5
5D1
100
AcDbEntity
  8
1
  6
CONTINUOUS
 62
    50
100
AcDbLine
 10
183.5
 20
116.2485
 30
0.0
 11
185.25
 21
116.2485
 31
0.0
  0
LINE
  5
5D2
100
AcDbEntity
  8
1
  6
CONTINUOUS
 62
    50
100
AcDbLine
 10
183.5
 20
108.7485
 30
0.0
 11
185.25
 21
108.7485
 31
0.0
  0
LINE
  5
5D3
100
AcDbEntity
  8
1
  6
CONTINUOUS
 62
    50
100
AcDbLine
 10
185.25
 20
103.7485
 30
0.0
 11
185.25
 21
108.7485
 31
0.0
  0
LINE
  5
5D4
100
AcDbEntity
  8
1
  6
CONTINUOUS
 62
    50
100
AcDbLine
 10
182.5
 20
103.7485
 30
0.0
 11
185.25
 21
103.7485
 31
0.0
  0
LINE
  5
5D5
100
AcDbEntity
  8
1
  6
CONTINUOUS
 62
    50
100
AcDbLine
 10
182.5
 20
103.7485
 30
0.0
 11
182.5
 21
118.2485
 31
0.0
  0
LINE
  5
5D6
100
AcDbEntity
  8
1
  6
CONTINUOUS
 62
    50
100
AcDbLine
 10
183.5
 20
106.7485
 30
0.0
 11
183.5
 21
118.2485
 31
0.0
  0
LINE
  5
5D7
100
AcDbEntity
  8
1
  6
CONTINUOUS
 62
    50
100
AcDbLine
 10
184.75
 20
103.7485
 30
0.0
 11
184.75
 21
106.7485
 31
0.0
  0
LINE
  5
5D8
100
AcDbEntity
  8
1
  6
CONTINUOUS
 62
    50
100
AcDbLine
 10
182.5
 20
106.7485
 30
0.0
 11
184.75
 21
106.7485
 31
0.0
  0
ARC
  5
5D9
100
AcDbEntity
  8
1
  6
CONTINUOUS
 62
    80
100
AcDbCircle
 10
56.75
 20
119.65
 30
0.0
 40
0.25
100
AcDbArc
 50
90.0
 51
180.0
  0
ARC
  5
5DA
100
AcDbEntity
  8
1
  6
CONTINUOUS
 62
    80
100
AcDbCircle
 10
55.75
 20
118.75
 30
0.0
 40
0.25
100
AcDbArc
 50
90.0
 51
180.0
  0
ARC
  5
5DB
100
AcDbEntity
  8
1
  6
CONTINUOUS
 62
    80
100
AcDbCircle
 10
56.75
 20
104.35
 30
0.0
 40
0.25
100
AcDbArc
 50
180.0
 51
270.0
  0
ARC
  5
5DC
100
AcDbEntity
  8
1
  6
CONTINUOUS
 62
    80
100
AcDbCircle
 10
55.75
 20
105.25
 30
0.0
 40
0.25
100
AcDbArc
 50
180.0
 51
270.0
  0
LINE
  5
5DD
100
AcDbEntity
  8
1
  6
CONTINUOUS
 62
    80
100
AcDbLine
 10
55.75
 20
119.0
 30
0.0
 11
56.5
 21
119.0
 31
0.0
  0
LINE
  5
5DE
100
AcDbEntity
  8
1
  6
CONTINUOUS
 62
    80
100
AcDbLine
 10
55.75
 20
105.0
 30
0.0
 11
56.5
 21
105.0
 31
0.0
  0
LINE
  5
5DF
100
AcDbEntity
  8
1
  6
CONTINUOUS
 62
    80
100
AcDbLine
 10
55.5
 20
118.75
 30
0.0
 11
55.5
 21
105.25
 31
0.0
  0
LINE
  5
5E0
100
AcDbEntity
  8
1
  6
CONTINUOUS
 62
    80
100
AcDbLine
 10
56.5
 20
119.65
 30
0.0
 11
56.5
 21
104.35
 31
0.0
  0
LINE
  5
5E1
100
AcDbEntity
  8
1
  6
CONTINUOUS
 62
    80
100
AcDbLine
 10
56.75
 20
104.1
 30
0.0
 11
57.0
 21
104.1
 31
0.0
  0
LINE
  5
5E2
100
AcDbEntity
  8
1
  6
CONTINUOUS
 62
    80
100
AcDbLine
 10
56.75
 20
119.9
 30
0.0
 11
57.0
 21
119.9
 31
0.0
  0
LINE
  5
5E3
100
AcDbEntity
  8
1
  6
CONTINUOUS
 62
    30
100
AcDbLine
 10
182.5
 20
168.9995
 30
0.0
 11
182.5
 21
147.9995
 31
0.0
  0
ARC
  5
5E4
100
AcDbEntity
  8
1
  6
CONTINUOUS
 62
    30
100
AcDbCircle
 10
178.5
 20
147.9995
 30
0.0
 40
0.5
100
AcDbArc
 50
180.0
 51
270.0
  0
ARC
  5
5E5
100
AcDbEntity
  8
1
  6
CONTINUOUS
 62
    30
100
AcDbCircle
 10
178.5
 20
168.9995
 30
0.0
 40
0.5
100
AcDbArc
 50
90.0
 51
180.0
  0
LINE
  5
5E6
100
AcDbEntity
  8
1
  6
CONTINUOUS
 62
    30
100
AcDbLine
 10
178.5
 20
169.4995
 30
0.0
 11
182.0
 21
169.4995
 31
0.0
  0
LINE
  5
5E7
100
AcDbEntity
  8
1
  6
CONTINUOUS
 62
    30
100
AcDbLine
 10
178.5
 20
147.4995
 30
0.0
 11
182.0
 21
147.4995
 31
0.0
  0
LINE
  5
5E8
100
AcDbEntity
  8
1
  6
CONTINUOUS
 62
    30
100
AcDbLine
 10
178.0
 20
168.9995
 30
0.0
 11
178.0
 21
147.9995
 31
0.0
  0
ARC
  5
5E9
100
AcDbEntity
  8
1
  6
CONTINUOUS
 62
    30
100
AcDbCircle
 10
182.0
 20
147.9995
 30
0.0
 40
0.5
100
AcDbArc
 50
270.0
 51
0.0
  0
ARC
  5
5EA
100
AcDbEntity
  8
1
  6
CONTINUOUS
 62
    30
100
AcDbCircle
 10
182.0
 20
168.9995
 30
0.0
 40
0.5
100
AcDbArc
 50
0.0
 51
90.0
  0
LINE
  5
5EB
100
AcDbEntity
  8
1
  6
CONTINUOUS
 62
    50
100
AcDbLine
 10
57.00025
 20
-113.0
 30
0.0
 11
57.00025
 21
-134.4995
 31
0.0
  0
LINE
  5
5EC
100
AcDbEntity
  8
1
  6
CONTINUOUS
 62
    50
100
AcDbLine
 10
57.0
 20
-87.0
 30
0.0
 11
57.0
 21
122.0
 31
0.0
  0
LINE
  5
5ED
100
AcDbEntity
  8
1
  6
CONTINUOUS
 62
    50
100
AcDbLine
 10
57.00025
 20
148.0
 30
0.0
 11
57.00025
 21
169.4995
 31
0.0
  0
ARC
  5
5EE
100
AcDbEntity
  8
1
  6
CONTINUOUS
 62
    50
100
AcDbCircle
 10
57.5
 20
122.0
 30
0.0
 40
0.5
100
AcDbArc
 50
90.0
 51
180.0
  0
ARC
  5
5EF
100
AcDbEntity
  8
1
  6
CONTINUOUS
 62
    50
100
AcDbCircle
 10
57.50025
 20
148.0
 30
0.0
 40
0.5
100
AcDbArc
 50
180.0
 51
270.0
  0
ARC
  5
5F0
100
AcDbEntity
  8
1
  6
CONTINUOUS
 62
    50
100
AcDbCircle
 10
57.50025
 20
-113.0
 30
0.0
 40
0.5
100
AcDbArc
 50
90.0
 51
180.0
  0
ARC
  5
5F1
100
AcDbEntity
  8
1
  6
CONTINUOUS
 62
    50
100
AcDbCircle
 10
57.5
 20
-87.0
 30
0.0
 40
0.5
100
AcDbArc
 50
180.0
 51
270.0
  0
LINE
  5
5F2
100
AcDbEntity
  8
1
  6
CONTINUOUS
 62
    80
100
AcDbLine
 10
54.91
 20
-50.126
 30
0.0
 11
54.91
 21
-54.376
 31
0.0
  0
LINE
  5
5F3
100
AcDbEntity
  8
1
  6
CONTINUOUS
 62
    80
100
AcDbLine
 10
182.5
 20
59.75
 30
0.0
 11
183.25
 21
59.75
 31
0.0
  0
LINE
  5
5F4
100
AcDbEntity
  8
1
  6
CONTINUOUS
 62
    80
100
AcDbLine
 10
182.5
 20
64.75
 30
0.0
 11
183.25
 21
64.75
 31
0.0
  0
LINE
  5
5F5
100
AcDbEntity
  8
1
  6
CONTINUOUS
 62
    80
100
AcDbLine
 10
183.25
 20
64.75
 30
0.0
 11
183.25
 21
59.75
 31
0.0
  0
LINE
  5
5F6
100
AcDbEntity
  8
1
  6
CONTINUOUS
 62
    80
100
AcDbLine
 10
182.5
 20
52.75
 30
0.0
 11
183.25
 21
52.75
 31
0.0
  0
LINE
  5
5F7
100
AcDbEntity
  8
1
  6
CONTINUOUS
 62
    80
100
AcDbLine
 10
182.5
 20
57.75
 30
0.0
 11
183.25
 21
57.75
 31
0.0
  0
LINE
  5
5F8
100
AcDbEntity
  8
1
  6
CONTINUOUS
 62
    80
100
AcDbLine
 10
183.25
 20
57.75
 30
0.0
 11
183.25
 21
52.75
 31
0.0
  0
LINE
  5
5F9
100
AcDbEntity
  8
1
  6
CONTINUOUS
 62
    80
100
AcDbLine
 10
182.5
 20
45.75
 30
0.0
 11
183.25
 21
45.75
 31
0.0
  0
LINE
  5
5FA
100
AcDbEntity
  8
1
  6
CONTINUOUS
 62
    80
100
AcDbLine
 10
182.5
 20
50.75
 30
0.0
 11
183.25
 21
50.75
 31
0.0
  0
LINE
  5
5FB
100
AcDbEntity
  8
1
  6
CONTINUOUS
 62
    80
100
AcDbLine
 10
183.25
 20
50.75
 30
0.0
 11
183.25
 21
45.75
 31
0.0
  0
LINE
  5
5FC
100
AcDbEntity
  8
1
  6
CONTINUOUS
 62
    80
100
AcDbLine
 10
182.5
 20
10.75
 30
0.0
 11
183.25
 21
10.75
 31
0.0
  0
LINE
  5
5FD
100
AcDbEntity
  8
1
  6
CONTINUOUS
 62
    80
100
AcDbLine
 10
182.5
 20
15.75
 30
0.0
 11
183.25
 21
15.75
 31
0.0
  0
LINE
  5
5FE
100
AcDbEntity
  8
1
  6
CONTINUOUS
 62
    80
100
AcDbLine
 10
183.25
 20
15.75
 30
0.0
 11
183.25
 21
10.75
 31
0.0
  0
LINE
  5
5FF
100
AcDbEntity
  8
1
  6
CONTINUOUS
 62
    80
100
AcDbLine
 10
182.5
 20
3.75
 30
0.0
 11
183.25
 21
3.75
 31
0.0
  0
LINE
  5
600
100
AcDbEntity
  8
1
  6
CONTINUOUS
 62
    80
100
AcDbLine
 10
182.5
 20
8.75
 30
0.0
 11
183.25
 21
8.75
 31
0.0
  0
LINE
  5
601
100
AcDbEntity
  8
1
  6
CONTINUOUS
 62
    80
100
AcDbLine
 10
183.25
 20
8.75
 30
0.0
 11
183.25
 21
3.75
 31
0.0
  0
LINE
  5
602
100
AcDbEntity
  8
1
  6
CONTINUOUS
 62
    80
100
AcDbLine
 10
182.5
 20
-3.25
 30
0.0
 11
183.25
 21
-3.25
 31
0.0
  0
LINE
  5
603
100
AcDbEntity
  8
1
  6
CONTINUOUS
 62
    80
100
AcDbLine
 10
182.5
 20
1.75
 30
0.0
 11
183.25
 21
1.75
 31
0.0
  0
LINE
  5
604
100
AcDbEntity
  8
1
  6
CONTINUOUS
 62
    80
100
AcDbLine
 10
183.25
 20
1.75
 30
0.0
 11
183.25
 21
-3.25
 31
0.0
  0
LINE
  5
605
100
AcDbEntity
  8
1
  6
CONTINUOUS
 62
    80
100
AcDbLine
 10
182.5
 20
-10.25
 30
0.0
 11
183.25
 21
-10.25
 31
0.0
  0
LINE
  5
606
100
AcDbEntity
  8
1
  6
CONTINUOUS
 62
    80
100
AcDbLine
 10
182.5
 20
-5.25
 30
0.0
 11
183.25
 21
-5.25
 31
0.0
  0
LINE
  5
607
100
AcDbEntity
  8
1
  6
CONTINUOUS
 62
    80
100
AcDbLine
 10
183.25
 20
-5.25
 30
0.0
 11
183.25
 21
-10.25
 31
0.0
  0
LINE
  5
608
100
AcDbEntity
  8
1
  6
CONTINUOUS
 62
    80
100
AcDbLine
 10
182.5
 20
-17.25
 30
0.0
 11
183.25
 21
-17.25
 31
0.0
  0
LINE
  5
609
100
AcDbEntity
  8
1
  6
CONTINUOUS
 62
    80
100
AcDbLine
 10
182.5
 20
-12.25
 30
0.0
 11
183.25
 21
-12.25
 31
0.0
  0
LINE
  5
60A
100
AcDbEntity
  8
1
  6
CONTINUOUS
 62
    80
100
AcDbLine
 10
183.25
 20
-12.25
 30
0.0
 11
183.25
 21
-17.25
 31
0.0
  0
LINE
  5
60B
100
AcDbEntity
  8
1
  6
CONTINUOUS
 62
    80
100
AcDbLine
 10
182.5
 20
-24.25
 30
0.0
 11
183.25
 21
-24.25
 31
0.0
  0
LINE
  5
60C
100
AcDbEntity
  8
1
  6
CONTINUOUS
 62
    80
100
AcDbLine
 10
182.5
 20
-19.25
 30
0.0
 11
183.25
 21
-19.25
 31
0.0
  0
LINE
  5
60D
100
AcDbEntity
  8
1
  6
CONTINUOUS
 62
    80
100
AcDbLine
 10
183.25
 20
-19.25
 30
0.0
 11
183.25
 21
-24.25
 31
0.0
  0
LINE
  5
60E
100
AcDbEntity
  8
1
  6
CONTINUOUS
 62
    80
100
AcDbLine
 10
182.5
 20
-31.25
 30
0.0
 11
183.25
 21
-31.25
 31
0.0
  0
LINE
  5
60F
100
AcDbEntity
  8
1
  6
CONTINUOUS
 62
    80
100
AcDbLine
 10
182.5
 20
-26.25
 30
0.0
 11
183.25
 21
-26.25
 31
0.0
  0
LINE
  5
610
100
AcDbEntity
  8
1
  6
CONTINUOUS
 62
    80
100
AcDbLine
 10
183.25
 20
-26.25
 30
0.0
 11
183.25
 21
-31.25
 31
0.0
  0
LINE
  5
611
100
AcDbEntity
  8
1
  6
CONTINUOUS
 62
    80
100
AcDbLine
 10
182.5
 20
-38.25
 30
0.0
 11
183.25
 21
-38.25
 31
0.0
  0
LINE
  5
612
100
AcDbEntity
  8
1
  6
CONTINUOUS
 62
    80
100
AcDbLine
 10
182.5
 20
-33.25
 30
0.0
 11
183.25
 21
-33.25
 31
0.0
  0
LINE
  5
613
100
AcDbEntity
  8
1
  6
CONTINUOUS
 62
    80
100
AcDbLine
 10
183.25
 20
-33.25
 30
0.0
 11
183.25
 21
-38.25
 31
0.0
  0
LINE
  5
614
100
AcDbEntity
  8
1
  6
CONTINUOUS
 62
    80
100
AcDbLine
 10
182.5
 20
-45.25
 30
0.0
 11
183.25
 21
-45.25
 31
0.0
  0
LINE
  5
615
100
AcDbEntity
  8
1
  6
CONTINUOUS
 62
    80
100
AcDbLine
 10
182.5
 20
-40.25
 30
0.0
 11
183.25
 21
-40.25
 31
0.0
  0
LINE
  5
616
100
AcDbEntity
  8
1
  6
CONTINUOUS
 62
    80
100
AcDbLine
 10
183.25
 20
-40.25
 30
0.0
 11
183.25
 21
-45.25
 31
0.0
  0
LINE
  5
617
100
AcDbEntity
  8
1
  6
CONTINUOUS
 62
    80
100
AcDbLine
 10
182.5
 20
-79.25
 30
0.0
 11
183.25
 21
-79.25
 31
0.0
  0
LINE
  5
618
100
AcDbEntity
  8
1
  6
CONTINUOUS
 62
    80
100
AcDbLine
 10
182.5
 20
-74.25
 30
0.0
 11
183.25
 21
-74.25
 31
0.0
  0
LINE
  5
619
100
AcDbEntity
  8
1
  6
CONTINUOUS
 62
    80
100
AcDbLine
 10
183.25
 20
-74.25
 30
0.0
 11
183.25
 21
-79.25
 31
0.0
  0
LINE
  5
61A
100
AcDbEntity
  8
1
  6
CONTINUOUS
 62
    80
100
AcDbLine
 10
182.5
 20
94.75
 30
0.0
 11
183.25
 21
94.75
 31
0.0
  0
LINE
  5
61B
100
AcDbEntity
  8
1
  6
CONTINUOUS
 62
    80
100
AcDbLine
 10
182.5
 20
99.75
 30
0.0
 11
183.25
 21
99.75
 31
0.0
  0
LINE
  5
61C
100
AcDbEntity
  8
1
  6
CONTINUOUS
 62
    80
100
AcDbLine
 10
183.25
 20
99.75
 30
0.0
 11
183.25
 21
94.75
 31
0.0
  0
LINE
  5
61D
100
AcDbEntity
  8
1
  6
CONTINUOUS
 62
    50
100
AcDbLine
 10
225.2
 20
55.25
 30
0.0
 11
225.575
 21
55.25
 31
0.0
  0
LINE
  5
61E
100
AcDbEntity
  8
1
  6
CONTINUOUS
 62
    50
100
AcDbLine
 10
224.2
 20
56.25
 30
0.0
 11
224.2
 21
57.125
 31
0.0
  0
LINE
  5
61F
100
AcDbEntity
  8
1
  6
CONTINUOUS
 62
    50
100
AcDbLine
 10
222.825
 20
55.25
 30
0.0
 11
223.2
 21
55.25
 31
0.0
  0
MTEXT
  5
620
100
AcDbEntity
  8
1
  6
CONTINUOUS
 62
    50
100
AcDbMText
 10
223.7
 20
54.8
 30
0.0
 40
1.0
 41
0.0
 71
     1
 72
     1
  1
\T0.750;\W1.136;\A1;B
  7
MX_NOTE_STANDARD
 11
0.0
 21
1.0
 31
0.0
  0
LINE
  5
621
100
AcDbEntity
  8
1
  6
CONTINUOUS
 62
    50
100
AcDbLine
 10
224.2
 20
53.375
 30
0.0
 11
224.2
 21
54.25
 31
0.0
  0
LINE
  5
622
100
AcDbEntity
  8
1
  6
CONTINUOUS
 62
    50
100
AcDbLine
 10
222.825
 20
53.625
 30
0.0
 11
222.825
 21
56.875
 31
0.0
  0
LINE
  5
623
100
AcDbEntity
  8
1
  6
CONTINUOUS
 62
    50
100
AcDbLine
 10
223.075
 20
53.375
 30
0.0
 11
225.325
 21
53.375
 31
0.0
  0
LINE
  5
624
100
AcDbEntity
  8
1
  6
CONTINUOUS
 62
    50
100
AcDbLine
 10
225.575
 20
53.625
 30
0.0
 11
225.575
 21
56.875
 31
0.0
  0
LINE
  5
625
100
AcDbEntity
  8
1
  6
CONTINUOUS
 62
    50
100
AcDbLine
 10
223.075
 20
57.125
 30
0.0
 11
225.325
 21
57.125
 31
0.0
  0
ARC
  5
626
100
AcDbEntity
  8
1
  6
CONTINUOUS
 62
    50
100
AcDbCircle
 10
225.325
 20
56.875
 30
0.0
 40
0.25
100
AcDbArc
 50
0.0
 51
90.0
  0
ARC
  5
627
100
AcDbEntity
  8
1
  6
CONTINUOUS
 62
    50
100
AcDbCircle
 10
223.075
 20
56.875
 30
0.0
 40
0.25
100
AcDbArc
 50
90.0
 51
180.0
  0
ARC
  5
628
100
AcDbEntity
  8
1
  6
CONTINUOUS
 62
    50
100
AcDbCircle
 10
223.075
 20
53.625
 30
0.0
 40
0.25
100
AcDbArc
 50
180.0
 51
270.0
  0
ARC
  5
629
100
AcDbEntity
  8
1
  6
CONTINUOUS
 62
    50
100
AcDbCircle
 10
225.325
 20
53.625
 30
0.0
 40
0.25
100
AcDbArc
 50
270.0
 51
0.0
  0
ARC
  5
62A
100
AcDbEntity
  8
1
  6
CONTINUOUS
 62
    50
100
AcDbCircle
 10
225.325
 20
46.625
 30
0.0
 40
0.25
100
AcDbArc
 50
270.0
 51
0.0
  0
ARC
  5
62B
100
AcDbEntity
  8
1
  6
CONTINUOUS
 62
    50
100
AcDbCircle
 10
223.075
 20
46.625
 30
0.0
 40
0.25
100
AcDbArc
 50
180.0
 51
270.0
  0
ARC
  5
62C
100
AcDbEntity
  8
1
  6
CONTINUOUS
 62
    50
100
AcDbCircle
 10
223.075
 20
49.875
 30
0.0
 40
0.25
100
AcDbArc
 50
90.0
 51
180.0
  0
ARC
  5
62D
100
AcDbEntity
  8
1
  6
CONTINUOUS
 62
    50
100
AcDbCircle
 10
225.325
 20
49.875
 30
0.0
 40
0.25
100
AcDbArc
 50
0.0
 51
90.0
  0
LINE
  5
62E
100
AcDbEntity
  8
1
  6
CONTINUOUS
 62
    50
100
AcDbLine
 10
223.075
 20
50.125
 30
0.0
 11
225.325
 21
50.125
 31
0.0
  0
LINE
  5
62F
100
AcDbEntity
  8
1
  6
CONTINUOUS
 62
    50
100
AcDbLine
 10
225.575
 20
46.625
 30
0.0
 11
225.575
 21
49.875
 31
0.0
  0
LINE
  5
630
100
AcDbEntity
  8
1
  6
CONTINUOUS
 62
    50
100
AcDbLine
 10
223.075
 20
46.375
 30
0.0
 11
225.325
 21
46.375
 31
0.0
  0
LINE
  5
631
100
AcDbEntity
  8
1
  6
CONTINUOUS
 62
    50
100
AcDbLine
 10
222.825
 20
46.625
 30
0.0
 11
222.825
 21
49.875
 31
0.0
  0
LINE
  5
632
100
AcDbEntity
  8
1
  6
CONTINUOUS
 62
    50
100
AcDbLine
 10
224.2
 20
46.375
 30
0.0
 11
224.2
 21
47.25
 31
0.0
  0
MTEXT
  5
633
100
AcDbEntity
  8
1
  6
CONTINUOUS
 62
    50
100
AcDbMText
 10
223.7
 20
47.8
 30
0.0
 40
1.0
 41
0.0
 71
     1
 72
     1
  1
\T0.750;\W1.136;\A1;A
  7
MX_NOTE_STANDARD
 11
0.0
 21
1.0
 31
0.0
  0
LINE
  5
634
100
AcDbEntity
  8
1
  6
CONTINUOUS
 62
    50
100
AcDbLine
 10
222.825
 20
48.25
 30
0.0
 11
223.2
 21
48.25
 31
0.0
  0
LINE
  5
635
100
AcDbEntity
  8
1
  6
CONTINUOUS
 62
    50
100
AcDbLine
 10
224.2
 20
49.25
 30
0.0
 11
224.2
 21
50.125
 31
0.0
  0
LINE
  5
636
100
AcDbEntity
  8
1
  6
CONTINUOUS
 62
    50
100
AcDbLine
 10
225.2
 20
48.25
 30
0.0
 11
225.575
 21
48.25
 31
0.0
  0
LINE
  5
637
100
AcDbEntity
  8
1
  6
CONTINUOUS
 62
    50
100
AcDbLine
 10
223.225
 20
14.75
 30
0.0
 11
225.175
 21
14.75
 31
0.0
  0
LINE
  5
638
100
AcDbEntity
  8
1
  6
CONTINUOUS
 62
    50
100
AcDbLine
 10
223.225
 20
11.75
 30
0.0
 11
225.175
 21
11.75
 31
0.0
  0
LINE
  5
639
100
AcDbEntity
  8
1
  6
CONTINUOUS
 62
    50
100
AcDbLine
 10
225.325
 20
14.6
 30
0.0
 11
225.325
 21
11.9
 31
0.0
  0
LINE
  5
63A
100
AcDbEntity
  8
1
  6
CONTINUOUS
 62
    50
100
AcDbLine
 10
223.075
 20
14.6
 30
0.0
 11
223.075
 21
11.9
 31
0.0
  0
MTEXT
  5
63B
100
AcDbEntity
  8
1
  6
CONTINUOUS
 62
    50
100
AcDbMText
 10
223.7
 20
12.875
 30
0.0
 40
1.0
 41
0.0
 71
     1
 72
     1
  1
\T0.851;\A1;9
  7
MX_NOTE_STANDARD
 11
0.0
 21
1.0
 31
0.0
  0
ARC
  5
63C
100
AcDbEntity
  8
1
  6
CONTINUOUS
 62
    50
100
AcDbCircle
 10
223.225
 20
14.6
 30
0.0
 40
0.15
100
AcDbArc
 50
90.0
 51
180.0
  0
ARC
  5
63D
100
AcDbEntity
  8
1
  6
CONTINUOUS
 62
    50
100
AcDbCircle
 10
225.175
 20
14.6
 30
0.0
 40
0.15
100
AcDbArc
 50
0.0
 51
90.0
  0
ARC
  5
63E
100
AcDbEntity
  8
1
  6
CONTINUOUS
 62
    50
100
AcDbCircle
 10
225.175
 20
11.9
 30
0.0
 40
0.15
100
AcDbArc
 50
270.0
 51
0.0
  0
ARC
  5
63F
100
AcDbEntity
  8
1
  6
CONTINUOUS
 62
    50
100
AcDbCircle
 10
223.225
 20
11.9
 30
0.0
 40
0.15
100
AcDbArc
 50
180.0
 51
270.0
  0
LINE
  5
640
100
AcDbEntity
  8
1
  6
CONTINUOUS
 62
    50
100
AcDbLine
 10
223.225
 20
7.75
 30
0.0
 11
225.175
 21
7.75
 31
0.0
  0
LINE
  5
641
100
AcDbEntity
  8
1
  6
CONTINUOUS
 62
    50
100
AcDbLine
 10
223.225
 20
4.75
 30
0.0
 11
225.175
 21
4.75
 31
0.0
  0
LINE
  5
642
100
AcDbEntity
  8
1
  6
CONTINUOUS
 62
    50
100
AcDbLine
 10
225.325
 20
7.6
 30
0.0
 11
225.325
 21
4.9
 31
0.0
  0
LINE
  5
643
100
AcDbEntity
  8
1
  6
CONTINUOUS
 62
    50
100
AcDbLine
 10
223.075
 20
7.6
 30
0.0
 11
223.075
 21
4.9
 31
0.0
  0
MTEXT
  5
644
100
AcDbEntity
  8
1
  6
CONTINUOUS
 62
    50
100
AcDbMText
 10
223.7
 20
5.875
 30
0.0
 40
1.0
 41
0.0
 71
     1
 72
     1
  1
\T0.851;\A1;8
  7
MX_NOTE_STANDARD
 11
0.0
 21
1.0
 31
0.0
  0
ARC
  5
645
100
AcDbEntity
  8
1
  6
CONTINUOUS
 62
    50
100
AcDbCircle
 10
223.225
 20
7.6
 30
0.0
 40
0.15
100
AcDbArc
 50
90.0
 51
180.0
  0
ARC
  5
646
100
AcDbEntity
  8
1
  6
CONTINUOUS
 62
    50
100
AcDbCircle
 10
225.175
 20
7.6
 30
0.0
 40
0.15
100
AcDbArc
 50
0.0
 51
90.0
  0
ARC
  5
647
100
AcDbEntity
  8
1
  6
CONTINUOUS
 62
    50
100
AcDbCircle
 10
225.175
 20
4.9
 30
0.0
 40
0.15
100
AcDbArc
 50
270.0
 51
0.0
  0
ARC
  5
648
100
AcDbEntity
  8
1
  6
CONTINUOUS
 62
    50
100
AcDbCircle
 10
223.225
 20
4.9
 30
0.0
 40
0.15
100
AcDbArc
 50
180.0
 51
270.0
  0
LINE
  5
649
100
AcDbEntity
  8
1
  6
CONTINUOUS
 62
    50
100
AcDbLine
 10
223.225
 20
0.75
 30
0.0
 11
225.175
 21
0.75
 31
0.0
  0
LINE
  5
64A
100
AcDbEntity
  8
1
  6
CONTINUOUS
 62
    50
100
AcDbLine
 10
223.225
 20
-2.25
 30
0.0
 11
225.175
 21
-2.25
 31
0.0
  0
LINE
  5
64B
100
AcDbEntity
  8
1
  6
CONTINUOUS
 62
    50
100
AcDbLine
 10
225.325
 20
0.6
 30
0.0
 11
225.325
 21
-2.1
 31
0.0
  0
LINE
  5
64C
100
AcDbEntity
  8
1
  6
CONTINUOUS
 62
    50
100
AcDbLine
 10
223.075
 20
0.6
 30
0.0
 11
223.075
 21
-2.1
 31
0.0
  0
MTEXT
  5
64D
100
AcDbEntity
  8
1
  6
CONTINUOUS
 62
    50
100
AcDbMText
 10
223.7
 20
-1.125
 30
0.0
 40
1.0
 41
0.0
 71
     1
 72
     1
  1
\T0.851;\A1;7
  7
MX_NOTE_STANDARD
 11
0.0
 21
1.0
 31
0.0
  0
ARC
  5
64E
100
AcDbEntity
  8
1
  6
CONTINUOUS
 62
    50
100
AcDbCircle
 10
223.225
 20
0.6
 30
0.0
 40
0.15
100
AcDbArc
 50
90.0
 51
180.0
  0
ARC
  5
64F
100
AcDbEntity
  8
1
  6
CONTINUOUS
 62
    50
100
AcDbCircle
 10
225.175
 20
0.6
 30
0.0
 40
0.15
100
AcDbArc
 50
0.0
 51
90.0
  0
ARC
  5
650
100
AcDbEntity
  8
1
  6
CONTINUOUS
 62
    50
100
AcDbCircle
 10
225.175
 20
-2.1
 30
0.0
 40
0.15
100
AcDbArc
 50
270.0
 51
0.0
  0
ARC
  5
651
100
AcDbEntity
  8
1
  6
CONTINUOUS
 62
    50
100
AcDbCircle
 10
223.225
 20
-2.1
 30
0.0
 40
0.15
100
AcDbArc
 50
180.0
 51
270.0
  0
LINE
  5
652
100
AcDbEntity
  8
1
  6
CONTINUOUS
 62
    50
100
AcDbLine
 10
223.225
 20
-6.25
 30
0.0
 11
225.175
 21
-6.25
 31
0.0
  0
LINE
  5
653
100
AcDbEntity
  8
1
  6
CONTINUOUS
 62
    50
100
AcDbLine
 10
223.225
 20
-9.25
 30
0.0
 11
225.175
 21
-9.25
 31
0.0
  0
LINE
  5
654
100
AcDbEntity
  8
1
  6
CONTINUOUS
 62
    50
100
AcDbLine
 10
225.325
 20
-6.4
 30
0.0
 11
225.325
 21
-9.1
 31
0.0
  0
LINE
  5
655
100
AcDbEntity
  8
1
  6
CONTINUOUS
 62
    50
100
AcDbLine
 10
223.075
 20
-6.4
 30
0.0
 11
223.075
 21
-9.1
 31
0.0
  0
MTEXT
  5
656
100
AcDbEntity
  8
1
  6
CONTINUOUS
 62
    50
100
AcDbMText
 10
223.7
 20
-8.125
 30
0.0
 40
1.0
 41
0.0
 71
     1
 72
     1
  1
\T0.851;\A1;6
  7
MX_NOTE_STANDARD
 11
0.0
 21
1.0
 31
0.0
  0
ARC
  5
657
100
AcDbEntity
  8
1
  6
CONTINUOUS
 62
    50
100
AcDbCircle
 10
223.225
 20
-6.4
 30
0.0
 40
0.15
100
AcDbArc
 50
90.0
 51
180.0
  0
ARC
  5
658
100
AcDbEntity
  8
1
  6
CONTINUOUS
 62
    50
100
AcDbCircle
 10
225.175
 20
-6.4
 30
0.0
 40
0.15
100
AcDbArc
 50
0.0
 51
90.0
  0
ARC
  5
659
100
AcDbEntity
  8
1
  6
CONTINUOUS
 62
    50
100
AcDbCircle
 10
225.175
 20
-9.1
 30
0.0
 40
0.15
100
AcDbArc
 50
270.0
 51
0.0
  0
ARC
  5
65A
100
AcDbEntity
  8
1
  6
CONTINUOUS
 62
    50
100
AcDbCircle
 10
223.225
 20
-9.1
 30
0.0
 40
0.15
100
AcDbArc
 50
180.0
 51
270.0
  0
LINE
  5
65B
100
AcDbEntity
  8
1
  6
CONTINUOUS
 62
    50
100
AcDbLine
 10
223.225
 20
-13.25
 30
0.0
 11
225.175
 21
-13.25
 31
0.0
  0
LINE
  5
65C
100
AcDbEntity
  8
1
  6
CONTINUOUS
 62
    50
100
AcDbLine
 10
223.225
 20
-16.25
 30
0.0
 11
225.175
 21
-16.25
 31
0.0
  0
LINE
  5
65D
100
AcDbEntity
  8
1
  6
CONTINUOUS
 62
    50
100
AcDbLine
 10
225.325
 20
-13.4
 30
0.0
 11
225.325
 21
-16.1
 31
0.0
  0
LINE
  5
65E
100
AcDbEntity
  8
1
  6
CONTINUOUS
 62
    50
100
AcDbLine
 10
223.075
 20
-13.4
 30
0.0
 11
223.075
 21
-16.1
 31
0.0
  0
MTEXT
  5
65F
100
AcDbEntity
  8
1
  6
CONTINUOUS
 62
    50
100
AcDbMText
 10
223.7
 20
-15.125
 30
0.0
 40
1.0
 41
0.0
 71
     1
 72
     1
  1
\T0.851;\A1;5
  7
MX_NOTE_STANDARD
 11
0.0
 21
1.0
 31
0.0
  0
ARC
  5
660
100
AcDbEntity
  8
1
  6
CONTINUOUS
 62
    50
100
AcDbCircle
 10
223.225
 20
-13.4
 30
0.0
 40
0.15
100
AcDbArc
 50
90.0
 51
180.0
  0
ARC
  5
661
100
AcDbEntity
  8
1
  6
CONTINUOUS
 62
    50
100
AcDbCircle
 10
225.175
 20
-13.4
 30
0.0
 40
0.15
100
AcDbArc
 50
0.0
 51
90.0
  0
ARC
  5
662
100
AcDbEntity
  8
1
  6
CONTINUOUS
 62
    50
100
AcDbCircle
 10
225.175
 20
-16.1
 30
0.0
 40
0.15
100
AcDbArc
 50
270.0
 51
0.0
  0
ARC
  5
663
100
AcDbEntity
  8
1
  6
CONTINUOUS
 62
    50
100
AcDbCircle
 10
223.225
 20
-16.1
 30
0.0
 40
0.15
100
AcDbArc
 50
180.0
 51
270.0
  0
LINE
  5
664
100
AcDbEntity
  8
1
  6
CONTINUOUS
 62
    50
100
AcDbLine
 10
223.225
 20
-20.25
 30
0.0
 11
225.175
 21
-20.25
 31
0.0
  0
LINE
  5
665
100
AcDbEntity
  8
1
  6
CONTINUOUS
 62
    50
100
AcDbLine
 10
223.225
 20
-23.25
 30
0.0
 11
225.175
 21
-23.25
 31
0.0
  0
LINE
  5
666
100
AcDbEntity
  8
1
  6
CONTINUOUS
 62
    50
100
AcDbLine
 10
225.325
 20
-20.4
 30
0.0
 11
225.325
 21
-23.1
 31
0.0
  0
LINE
  5
667
100
AcDbEntity
  8
1
  6
CONTINUOUS
 62
    50
100
AcDbLine
 10
223.075
 20
-20.4
 30
0.0
 11
223.075
 21
-23.1
 31
0.0
  0
MTEXT
  5
668
100
AcDbEntity
  8
1
  6
CONTINUOUS
 62
    50
100
AcDbMText
 10
223.7
 20
-22.125
 30
0.0
 40
1.0
 41
0.0
 71
     1
 72
     1
  1
\T0.851;\A1;4
  7
MX_NOTE_STANDARD
 11
0.0
 21
1.0
 31
0.0
  0
ARC
  5
669
100
AcDbEntity
  8
1
  6
CONTINUOUS
 62
    50
100
AcDbCircle
 10
223.225
 20
-20.4
 30
0.0
 40
0.15
100
AcDbArc
 50
90.0
 51
180.0
  0
ARC
  5
66A
100
AcDbEntity
  8
1
  6
CONTINUOUS
 62
    50
100
AcDbCircle
 10
225.175
 20
-20.4
 30
0.0
 40
0.15
100
AcDbArc
 50
0.0
 51
90.0
  0
ARC
  5
66B
100
AcDbEntity
  8
1
  6
CONTINUOUS
 62
    50
100
AcDbCircle
 10
225.175
 20
-23.1
 30
0.0
 40
0.15
100
AcDbArc
 50
270.0
 51
0.0
  0
ARC
  5
66C
100
AcDbEntity
  8
1
  6
CONTINUOUS
 62
    50
100
AcDbCircle
 10
223.225
 20
-23.1
 30
0.0
 40
0.15
100
AcDbArc
 50
180.0
 51
270.0
  0
LINE
  5
66D
100
AcDbEntity
  8
1
  6
CONTINUOUS
 62
    50
100
AcDbLine
 10
223.225
 20
-27.25
 30
0.0
 11
225.175
 21
-27.25
 31
0.0
  0
LINE
  5
66E
100
AcDbEntity
  8
1
  6
CONTINUOUS
 62
    50
100
AcDbLine
 10
223.225
 20
-30.25
 30
0.0
 11
225.175
 21
-30.25
 31
0.0
  0
LINE
  5
66F
100
AcDbEntity
  8
1
  6
CONTINUOUS
 62
    50
100
AcDbLine
 10
225.325
 20
-27.4
 30
0.0
 11
225.325
 21
-30.1
 31
0.0
  0
LINE
  5
670
100
AcDbEntity
  8
1
  6
CONTINUOUS
 62
    50
100
AcDbLine
 10
223.075
 20
-27.4
 30
0.0
 11
223.075
 21
-30.1
 31
0.0
  0
MTEXT
  5
671
100
AcDbEntity
  8
1
  6
CONTINUOUS
 62
    50
100
AcDbMText
 10
223.7
 20
-29.125
 30
0.0
 40
1.0
 41
0.0
 71
     1
 72
     1
  1
\T0.851;\A1;3
  7
MX_NOTE_STANDARD
 11
0.0
 21
1.0
 31
0.0
  0
ARC
  5
672
100
AcDbEntity
  8
1
  6
CONTINUOUS
 62
    50
100
AcDbCircle
 10
223.225
 20
-27.4
 30
0.0
 40
0.15
100
AcDbArc
 50
90.0
 51
180.0
  0
ARC
  5
673
100
AcDbEntity
  8
1
  6
CONTINUOUS
 62
    50
100
AcDbCircle
 10
225.175
 20
-27.4
 30
0.0
 40
0.15
100
AcDbArc
 50
0.0
 51
90.0
  0
ARC
  5
674
100
AcDbEntity
  8
1
  6
CONTINUOUS
 62
    50
100
AcDbCircle
 10
225.175
 20
-30.1
 30
0.0
 40
0.15
100
AcDbArc
 50
270.0
 51
0.0
  0
ARC
  5
675
100
AcDbEntity
  8
1
  6
CONTINUOUS
 62
    50
100
AcDbCircle
 10
223.225
 20
-30.1
 30
0.0
 40
0.15
100
AcDbArc
 50
180.0
 51
270.0
  0
LINE
  5
676
100
AcDbEntity
  8
1
  6
CONTINUOUS
 62
    50
100
AcDbLine
 10
223.225
 20
-34.25
 30
0.0
 11
225.175
 21
-34.25
 31
0.0
  0
LINE
  5
677
100
AcDbEntity
  8
1
  6
CONTINUOUS
 62
    50
100
AcDbLine
 10
223.225
 20
-37.25
 30
0.0
 11
225.175
 21
-37.25
 31
0.0
  0
LINE
  5
678
100
AcDbEntity
  8
1
  6
CONTINUOUS
 62
    50
100
AcDbLine
 10
225.325
 20
-34.4
 30
0.0
 11
225.325
 21
-37.1
 31
0.0
  0
LINE
  5
679
100
AcDbEntity
  8
1
  6
CONTINUOUS
 62
    50
100
AcDbLine
 10
223.075
 20
-34.4
 30
0.0
 11
223.075
 21
-37.1
 31
0.0
  0
MTEXT
  5
67A
100
AcDbEntity
  8
1
  6
CONTINUOUS
 62
    50
100
AcDbMText
 10
223.7
 20
-36.125
 30
0.0
 40
1.0
 41
0.0
 71
     1
 72
     1
  1
\T0.851;\A1;2
  7
MX_NOTE_STANDARD
 11
0.0
 21
1.0
 31
0.0
  0
ARC
  5
67B
100
AcDbEntity
  8
1
  6
CONTINUOUS
 62
    50
100
AcDbCircle
 10
223.225
 20
-34.4
 30
0.0
 40
0.15
100
AcDbArc
 50
90.0
 51
180.0
  0
ARC
  5
67C
100
AcDbEntity
  8
1
  6
CONTINUOUS
 62
    50
100
AcDbCircle
 10
225.175
 20
-34.4
 30
0.0
 40
0.15
100
AcDbArc
 50
0.0
 51
90.0
  0
ARC
  5
67D
100
AcDbEntity
  8
1
  6
CONTINUOUS
 62
    50
100
AcDbCircle
 10
225.175
 20
-37.1
 30
0.0
 40
0.15
100
AcDbArc
 50
270.0
 51
0.0
  0
ARC
  5
67E
100
AcDbEntity
  8
1
  6
CONTINUOUS
 62
    50
100
AcDbCircle
 10
223.225
 20
-37.1
 30
0.0
 40
0.15
100
AcDbArc
 50
180.0
 51
270.0
  0
ARC
  5
67F
100
AcDbEntity
  8
1
  6
CONTINUOUS
 62
    50
100
AcDbCircle
 10
223.225
 20
-44.1
 30
0.0
 40
0.15
100
AcDbArc
 50
180.0
 51
270.0
  0
ARC
  5
680
100
AcDbEntity
  8
1
  6
CONTINUOUS
 62
    50
100
AcDbCircle
 10
225.175
 20
-44.1
 30
0.0
 40
0.15
100
AcDbArc
 50
270.0
 51
0.0
  0
ARC
  5
681
100
AcDbEntity
  8
1
  6
CONTINUOUS
 62
    50
100
AcDbCircle
 10
225.175
 20
-41.4
 30
0.0
 40
0.15
100
AcDbArc
 50
0.0
 51
90.0
  0
ARC
  5
682
100
AcDbEntity
  8
1
  6
CONTINUOUS
 62
    50
100
AcDbCircle
 10
223.225
 20
-41.4
 30
0.0
 40
0.15
100
AcDbArc
 50
90.0
 51
180.0
  0
MTEXT
  5
683
100
AcDbEntity
  8
1
  6
CONTINUOUS
 62
    50
100
AcDbMText
 10
223.7
 20
-42.975
 30
0.0
 40
1.0
 41
0.0
 71
     1
 72
     1
  1
\T1.043;\W1.226;\A1;1
  7
MX_NOTE_STANDARD
 11
0.0
 21
1.0
 31
0.0
  0
LINE
  5
684
100
AcDbEntity
  8
1
  6
CONTINUOUS
 62
    50
100
AcDbLine
 10
223.075
 20
-41.4
 30
0.0
 11
223.075
 21
-44.1
 31
0.0
  0
LINE
  5
685
100
AcDbEntity
  8
1
  6
CONTINUOUS
 62
    50
100
AcDbLine
 10
225.325
 20
-41.4
 30
0.0
 11
225.325
 21
-44.1
 31
0.0
  0
LINE
  5
686
100
AcDbEntity
  8
1
  6
CONTINUOUS
 62
    50
100
AcDbLine
 10
223.225
 20
-44.25
 30
0.0
 11
225.175
 21
-44.25
 31
0.0
  0
LINE
  5
687
100
AcDbEntity
  8
1
  6
CONTINUOUS
 62
    50
100
AcDbLine
 10
223.225
 20
-41.25
 30
0.0
 11
225.175
 21
-41.25
 31
0.0
  0
HATCH
  5
688
100
AcDbEntity
  8
1
  6
CONTINUOUS
 62
   191
100
AcDbHatch
 10
0.0
 20
0.0
 30
0.0
210
0.0
220
0.0
230
1.0
  2
SOLID
 70
     1
 71
     0
 91
        1
 92
        1
 93
        4
 72
     1
 10
227.85733720249902
 20
-79.273606152108187
 11
231.70200105522702
 21
-80.938256223302233
 72
     2
 10
232.0
 20
-80.250000000000227
 40
0.75
 50
113.41149
 51
344.448861
 73
     0
 72
     1
 10
232.72254367496168
 20
-80.048926303993085
 11
231.59932675339348
 21
-76.012729540977261
 72
     2
 10
228.94999999999993
 20
-76.750000000000227
 40
2.75
 50
344.448861
 51
473.41149
 73
     0
 97
        0
 75
     0
 76
     1
 98
        1
 10
0.0
 20
0.0
  0
HATCH
  5
689
100
AcDbEntity
  8
1
  6
CONTINUOUS
 62
   191
100
AcDbHatch
 10
0.0
 20
0.0
 30
0.0
210
0.0
220
0.0
230
1.0
  2
SOLID
 70
     1
 71
     0
 91
        1
 92
        1
 93
        4
 72
     1
 10
227.85733720249902
 20
-45.273606152108187
 11
231.70200105522702
 21
-46.938256223302233
 72
     2
 10
232.0
 20
-46.250000000000227
 40
0.75
 50
113.41149
 51
344.448861
 73
     0
 72
     1
 10
232.72254367496168
 20
-46.048926303993085
 11
231.59932675339348
 21
-42.012729540977261
 72
     2
 10
228.94999999999993
 20
-42.750000000000227
 40
2.75
 50
344.448861
 51
473.41149
 73
     0
 97
        0
 75
     0
 76
     1
 98
        1
 10
0.0
 20
0.0
  0
HATCH
  5
68A
100
AcDbEntity
  8
1
  6
CONTINUOUS
 62
   191
100
AcDbHatch
 10
0.0
 20
0.0
 30
0.0
210
0.0
220
0.0
230
1.0
  2
SOLID
 70
     1
 71
     0
 91
        1
 92
        1
 93
        4
 72
     1
 10
227.85733720249902
 20
-38.273606152108187
 11
231.70200105522702
 21
-39.938256223302233
 72
     2
 10
232.0
 20
-39.250000000000227
 40
0.75
 50
113.41149
 51
344.448861
 73
     0
 72
     1
 10
232.72254367496168
 20
-39.048926303993085
 11
231.59932675339348
 21
-35.012729540977261
 72
     2
 10
228.94999999999993
 20
-35.750000000000227
 40
2.75
 50
344.448861
 51
473.41149
 73
     0
 97
        0
 75
     0
 76
     1
 98
        1
 10
0.0
 20
0.0
  0
HATCH
  5
68B
100
AcDbEntity
  8
1
  6
CONTINUOUS
 62
   191
100
AcDbHatch
 10
0.0
 20
0.0
 30
0.0
210
0.0
220
0.0
230
1.0
  2
SOLID
 70
     1
 71
     0
 91
        1
 92
        1
 93
        4
 72
     1
 10
227.85733720249902
 20
-31.273606152108187
 11
231.70200105522702
 21
-32.938256223302233
 72
     2
 10
232.0
 20
-32.250000000000227
 40
0.75
 50
113.41149
 51
344.448861
 73
     0
 72
     1
 10
232.72254367496168
 20
-32.048926303993085
 11
231.59932675339348
 21
-28.012729540977261
 72
     2
 10
228.94999999999993
 20
-28.750000000000227
 40
2.75
 50
344.448861
 51
473.41149
 73
     0
 97
        0
 75
     0
 76
     1
 98
        1
 10
0.0
 20
0.0
  0
HATCH
  5
68C
100
AcDbEntity
  8
1
  6
CONTINUOUS
 62
   191
100
AcDbHatch
 10
0.0
 20
0.0
 30
0.0
210
0.0
220
0.0
230
1.0
  2
SOLID
 70
     1
 71
     0
 91
        1
 92
        1
 93
        4
 72
     1
 10
227.85733720249902
 20
-24.273606152108187
 11
231.70200105522702
 21
-25.938256223302233
 72
     2
 10
232.0
 20
-25.250000000000227
 40
0.75
 50
113.41149
 51
344.448861
 73
     0
 72
     1
 10
232.72254367496168
 20
-25.048926303993085
 11
231.59932675339348
 21
-21.012729540977261
 72
     2
 10
228.94999999999993
 20
-21.750000000000227
 40
2.75
 50
344.448861
 51
473.41149
 73
     0
 97
        0
 75
     0
 76
     1
 98
        1
 10
0.0
 20
0.0
  0
HATCH
  5
68D
100
AcDbEntity
  8
1
  6
CONTINUOUS
 62
   191
100
AcDbHatch
 10
0.0
 20
0.0
 30
0.0
210
0.0
220
0.0
230
1.0
  2
SOLID
 70
     1
 71
     0
 91
        1
 92
        1
 93
        4
 72
     1
 10
227.85733720249902
 20
-17.273606152108187
 11
231.70200105522702
 21
-18.938256223302233
 72
     2
 10
232.0
 20
-18.250000000000227
 40
0.75
 50
113.41149
 51
344.448861
 73
     0
 72
     1
 10
232.72254367496168
 20
-18.048926303993085
 11
231.59932675339348
 21
-14.012729540977261
 72
     2
 10
228.94999999999993
 20
-14.750000000000227
 40
2.75
 50
344.448861
 51
473.41149
 73
     0
 97
        0
 75
     0
 76
     1
 98
        1
 10
0.0
 20
0.0
  0
HATCH
  5
68E
100
AcDbEntity
  8
1
  6
CONTINUOUS
 62
   191
100
AcDbHatch
 10
0.0
 20
0.0
 30
0.0
210
0.0
220
0.0
230
1.0
  2
SOLID
 70
     1
 71
     0
 91
        1
 92
        1
 93
        4
 72
     1
 10
227.85733720249902
 20
-10.273606152108187
 11
231.70200105522702
 21
-11.938256223302233
 72
     2
 10
232.0
 20
-11.250000000000227
 40
0.75
 50
113.41149
 51
344.448861
 73
     0
 72
     1
 10
232.72254367496168
 20
-11.048926303993085
 11
231.59932675339348
 21
-7.0127295409772614
 72
     2
 10
228.94999999999993
 20
-7.7500000000002274
 40
2.75
 50
344.448861
 51
473.41149
 73
     0
 97
        0
 75
     0
 76
     1
 98
        1
 10
0.0
 20
0.0
  0
HATCH
  5
68F
100
AcDbEntity
  8
1
  6
CONTINUOUS
 62
   191
100
AcDbHatch
 10
0.0
 20
0.0
 30
0.0
210
0.0
220
0.0
230
1.0
  2
SOLID
 70
     1
 71
     0
 91
        1
 92
        1
 93
        4
 72
     1
 10
227.85733720249902
 20
-3.2736061521081865
 11
231.70200105522702
 21
-4.9382562233022327
 72
     2
 10
232.0
 20
-4.2500000000002274
 40
0.75
 50
113.41149
 51
344.448861
 73
     0
 72
     1
 10
232.72254367496168
 20
-4.0489263039930847
 11
231.59932675339348
 21
-0.0127295409772614
 72
     2
 10
228.94999999999993
 20
-0.7500000000002274
 40
2.75
 50
344.448861
 51
473.41149
 73
     0
 97
        0
 75
     0
 76
     1
 98
        1
 10
0.0
 20
0.0
  0
HATCH
  5
690
100
AcDbEntity
  8
1
  6
CONTINUOUS
 62
   191
100
AcDbHatch
 10
0.0
 20
0.0
 30
0.0
210
0.0
220
0.0
230
1.0
  2
SOLID
 70
     1
 71
     0
 91
        1
 92
        1
 93
        4
 72
     1
 10
227.85733720249902
 20
3.7263938478918135
 11
231.70200105522702
 21
2.0617437766977673
 72
     2
 10
232.0
 20
2.7499999999997726
 40
0.75
 50
113.41149
 51
344.448861
 73
     0
 72
     1
 10
232.72254367496168
 20
2.9510736960069153
 11
231.59932675339348
 21
6.9872704590227386
 72
     2
 10
228.94999999999993
 20
6.2499999999997726
 40
2.75
 50
344.448861
 51
473.41149
 73
     0
 97
        0
 75
     0
 76
     1
 98
        1
 10
0.0
 20
0.0
  0
HATCH
  5
691
100
AcDbEntity
  8
1
  6
CONTINUOUS
 62
   191
100
AcDbHatch
 10
0.0
 20
0.0
 30
0.0
210
0.0
220
0.0
230
1.0
  2
SOLID
 70
     1
 71
     0
 91
        1
 92
        1
 93
        4
 72
     1
 10
227.85733720249902
 20
10.726393847891813
 11
231.70200105522702
 21
9.0617437766977673
 72
     2
 10
232.0
 20
9.7499999999997726
 40
0.75
 50
113.41149
 51
344.448861
 73
     0
 72
     1
 10
232.72254367496168
 20
9.9510736960069153
 11
231.59932675339348
 21
13.987270459022739
 72
     2
 10
228.94999999999993
 20
13.249999999999773
 40
2.75
 50
344.448861
 51
473.41149
 73
     0
 97
        0
 75
     0
 76
     1
 98
        1
 10
0.0
 20
0.0
  0
HATCH
  5
692
100
AcDbEntity
  8
1
  6
CONTINUOUS
 62
   191
100
AcDbHatch
 10
0.0
 20
0.0
 30
0.0
210
0.0
220
0.0
230
1.0
  2
SOLID
 70
     1
 71
     0
 91
        1
 92
        1
 93
        4
 72
     1
 10
227.85733720249902
 20
45.726393847891813
 11
231.70200105522702
 21
44.061743776697767
 72
     2
 10
232.0
 20
44.749999999999773
 40
0.75
 50
113.41149
 51
344.448861
 73
     0
 72
     1
 10
232.72254367496168
 20
44.951073696006915
 11
231.59932675339348
 21
48.987270459022739
 72
     2
 10
228.94999999999993
 20
48.249999999999773
 40
2.75
 50
344.448861
 51
473.41149
 73
     0
 97
        0
 75
     0
 76
     1
 98
        1
 10
0.0
 20
0.0
  0
HATCH
  5
693
100
AcDbEntity
  8
1
  6
CONTINUOUS
 62
   191
100
AcDbHatch
 10
0.0
 20
0.0
 30
0.0
210
0.0
220
0.0
230
1.0
  2
SOLID
 70
     1
 71
     0
 91
        1
 92
        1
 93
        4
 72
     1
 10
227.85733720249902
 20
52.726393847891813
 11
231.70200105522702
 21
51.061743776697767
 72
     2
 10
232.0
 20
51.749999999999773
 40
0.75
 50
113.41149
 51
344.448861
 73
     0
 72
     1
 10
232.72254367496168
 20
51.951073696006915
 11
231.59932675339348
 21
55.987270459022739
 72
     2
 10
228.94999999999993
 20
55.249999999999773
 40
2.75
 50
344.448861
 51
473.41149
 73
     0
 97
        0
 75
     0
 76
     1
 98
        1
 10
0.0
 20
0.0
  0
HATCH
  5
694
100
AcDbEntity
  8
1
  6
CONTINUOUS
 62
   191
100
AcDbHatch
 10
0.0
 20
0.0
 30
0.0
210
0.0
220
0.0
230
1.0
  2
SOLID
 70
     1
 71
     0
 91
        1
 92
        1
 93
        4
 72
     1
 10
227.85733720249902
 20
59.726393847891813
 11
231.70200105522702
 21
58.061743776697767
 72
     2
 10
232.0
 20
58.749999999999773
 40
0.75
 50
113.41149
 51
344.448861
 73
     0
 72
     1
 10
232.72254367496168
 20
58.951073696006915
 11
231.59932675339348
 21
62.987270459022739
 72
     2
 10
228.94999999999993
 20
62.249999999999773
 40
2.75
 50
344.448861
 51
473.41149
 73
     0
 97
        0
 75
     0
 76
     1
 98
        1
 10
0.0
 20
0.0
  0
CIRCLE
  5
695
100
AcDbEntity
  8
1
  6
CONTINUOUS
 62
    20
100
AcDbCircle
 10
228.95
 20
97.25
 30
0.0
 40
2.75
  0
HATCH
  5
696
100
AcDbEntity
  8
1
  6
CONTINUOUS
 62
   191
100
AcDbHatch
 10
0.0
 20
0.0
 30
0.0
210
0.0
220
0.0
230
1.0
  2
SOLID
 70
     1
 71
     0
 91
        1
 92
        1
 93
        4
 72
     1
 10
227.85733720249902
 20
94.726393847891813
 11
231.70200105522702
 21
93.061743776697767
 72
     2
 10
232.00000000000011
 20
93.749999999999773
 40
0.75
 50
113.41149
 51
344.448861
 73
     0
 72
     1
 10
232.72254367496168
 20
93.951073696006915
 11
231.59932675339348
 21
97.987270459022739
 72
     2
 10
228.94999999999993
 20
97.249999999999773
 40
2.75
 50
344.448861
 51
473.41149
 73
     0
 97
        0
 75
     0
 76
     1
 98
        1
 10
0.0
 20
0.0
  0
LINE
  5
697
100
AcDbEntity
  8
1
  6
CONTINUOUS
 62
   191
100
AcDbLine
 10
232.722544
 20
93.951074
 30
0.0
 11
231.599327
 21
97.98727
 31
0.0
  0
LINE
  5
698
100
AcDbEntity
  8
1
  6
CONTINUOUS
 62
   191
100
AcDbLine
 10
231.702001
 20
93.061744
 30
0.0
 11
227.857337
 21
94.726394
 31
0.0
  0
MTEXT
  5
699
100
AcDbEntity
  8
1
  6
CONTINUOUS
 62
   191
100
AcDbMText
 10
233.825
 20
90.9
 30
0.0
 40
1.25
 41
0.0
 71
     1
 72
     1
  1
\T0.801;\W0.770;\A1;PLAY BACK FREEZE
  7
MX_NOTE_STANDARD
 11
0.0
 21
1.0
 31
0.0
  0
MTEXT
  5
69A
100
AcDbEntity
  8
1
  6
CONTINUOUS
 62
   191
100
AcDbMText
 10
223.575
 20
93.7
 30
0.0
 40
1.25
 41
0.0
 71
     1
 72
     1
  1
\T0.799;\W0.767;\A1;PLAY BACK
  7
MX_NOTE_STANDARD
 11
0.0
 21
1.0
 31
0.0
  0
MTEXT
  5
69B
100
AcDbEntity
  8
1
  6
CONTINUOUS
 62
   191
100
AcDbMText
 10
233.825
 20
-16.7
 30
0.0
 40
1.25
 41
0.0
 71
     1
 72
     1
  1
\T0.778;\W0.748;\A1;ENTER
  7
MX_NOTE_STANDARD
 11
0.0
 21
1.0
 31
0.0
  0
LINE
  5
69C
100
AcDbEntity
  8
1
  6
CONTINUOUS
 62
   191
100
AcDbLine
 10
233.7
 20
-22.25
 30
0.0
 11
233.7
 21
-21.25
 31
0.0
  0
SOLID
  5
69D
100
AcDbEntity
  8
1
  6
CONTINUOUS
 62
   191
100
AcDbTrace
 10
233.7
 20
-22.25
 30
0.0
 11
233.7
 21
-21.25
 31
0.0
 12
235.2
 22
-21.75
 32
0.0
 13
235.2
 23
-21.75
 33
0.0
  0
LINE
  5
69E
100
AcDbEntity
  8
1
  6
CONTINUOUS
 62
   191
100
AcDbLine
 10
233.7
 20
-21.25
 30
0.0
 11
235.2
 21
-21.75
 31
0.0
  0
LINE
  5
69F
100
AcDbEntity
  8
1
  6
CONTINUOUS
 62
   191
100
AcDbLine
 10
233.7
 20
-22.25
 30
0.0
 11
235.2
 21
-21.75
 31
0.0
  0
LINE
  5
6A0
100
AcDbEntity
  8
1
  6
CONTINUOUS
 62
   191
100
AcDbLine
 10
233.7
 20
-28.75
 30
0.0
 11
235.2
 21
-28.25
 31
0.0
  0
LINE
  5
6A1
100
AcDbEntity
  8
1
  6
CONTINUOUS
 62
   191
100
AcDbLine
 10
233.7
 20
-28.75
 30
0.0
 11
235.2
 21
-29.25
 31
0.0
  0
LINE
  5
6A2
100
AcDbEntity
  8
1
  6
CONTINUOUS
 62
   191
100
AcDbLine
 10
235.2
 20
-29.25
 30
0.0
 11
235.2
 21
-28.25
 31
0.0
  0
SOLID
  5
6A3
100
AcDbEntity
  8
1
  6
CONTINUOUS
 62
   191
100
AcDbTrace
 10
235.2
 20
-28.25
 30
0.0
 11
233.7
 21
-28.75
 31
0.0
 12
235.2
 22
-29.25
 32
0.0
 13
235.2
 23
-29.25
 33
0.0
  0
LINE
  5
6A4
100
AcDbEntity
  8
1
  6
CONTINUOUS
 62
   191
100
AcDbLine
 10
233.95
 20
-36.5
 30
0.0
 11
234.95
 21
-36.5
 31
0.0
  0
SOLID
  5
6A5
100
AcDbEntity
  8
1
  6
CONTINUOUS
 62
   191
100
AcDbTrace
 10
233.95
 20
-36.5
 30
0.0
 11
234.45
 21
-35.0
 31
0.0
 12
234.95
 22
-36.5
 32
0.0
 13
234.95
 23
-36.5
 33
0.0
  0
LINE
  5
6A6
100
AcDbEntity
  8
1
  6
CONTINUOUS
 62
   191
100
AcDbLine
 10
233.95
 20
-36.5
 30
0.0
 11
234.45
 21
-35.0
 31
0.0
  0
LINE
  5
6A7
100
AcDbEntity
  8
1
  6
CONTINUOUS
 62
   191
100
AcDbLine
 10
234.45
 20
-35.0
 30
0.0
 11
234.95
 21
-36.5
 31
0.0
  0
LINE
  5
6A8
100
AcDbEntity
  8
1
  6
CONTINUOUS
 62
   191
100
AcDbLine
 10
233.95
 20
-42.0
 30
0.0
 11
234.95
 21
-42.0
 31
0.0
  0
SOLID
  5
6A9
100
AcDbEntity
  8
1
  6
CONTINUOUS
 62
   191
100
AcDbTrace
 10
233.95
 20
-42.0
 30
0.0
 11
234.95
 21
-42.0
 31
0.0
 12
234.45
 22
-43.5
 32
0.0
 13
234.45
 23
-43.5
 33
0.0
  0
LINE
  5
6AA
100
AcDbEntity
  8
1
  6
CONTINUOUS
 62
   191
100
AcDbLine
 10
234.45
 20
-43.5
 30
0.0
 11
234.95
 21
-42.0
 31
0.0
  0
LINE
  5
6AB
100
AcDbEntity
  8
1
  6
CONTINUOUS
 62
   191
100
AcDbLine
 10
233.95
 20
-42.0
 30
0.0
 11
234.45
 21
-43.5
 31
0.0
  0
MTEXT
  5
6AC
100
AcDbEntity
  8
1
  6
CONTINUOUS
 62
   191
100
AcDbMText
 10
233.725
 20
-73.05
 30
0.0
 40
1.25
 41
0.0
 71
     1
 72
     1
  1
\T0.750;\W0.873;\A1;MENU
  7
MX_NOTE_STANDARD
 11
0.0
 21
1.0
 31
0.0
  0
MTEXT
  5
6AD
100
AcDbEntity
  8
1
  6
CONTINUOUS
 62
   191
100
AcDbMText
 10
223.575
 20
-78.3
 30
0.0
 40
1.25
 41
0.0
 71
     1
 72
     1
  1
\T0.778;\W0.748;\A1;LIVE
  7
MX_NOTE_STANDARD
 11
0.0
 21
1.0
 31
0.0
  0
MTEXT
  5
6AE
100
AcDbEntity
  8
1
  6
CONTINUOUS
 62
   191
100
AcDbMText
 10
216.875
 20
-42.359375
 30
0.0
 40
1.5
 41
0.0
 71
     1
 72
     1
  1
\T0.864;\W1.017;\A1;MULTIPLEXER
  7
MX_NOTE_STANDARD
 11
0.0
 21
1.0
 31
0.0
  0
CIRCLE
  5
6AF
100
AcDbEntity
  8
1
  6
CONTINUOUS
 62
   191
100
AcDbCircle
 10
232.0
 20
93.75
 30
0.0
 40
0.75
  0
CIRCLE
  5
6B0
100
AcDbEntity
  8
1
  6
CONTINUOUS
 62
   191
100
AcDbCircle
 10
232.0
 20
58.75
 30
0.0
 40
0.75
  0
CIRCLE
  5
6B1
100
AcDbEntity
  8
1
  6
CONTINUOUS
 62
   191
100
AcDbCircle
 10
232.0
 20
51.75
 30
0.0
 40
0.75
  0
CIRCLE
  5
6B2
100
AcDbEntity
  8
1
  6
CONTINUOUS
 62
   191
100
AcDbCircle
 10
232.0
 20
44.75
 30
0.0
 40
0.75
  0
CIRCLE
  5
6B3
100
AcDbEntity
  8
1
  6
CONTINUOUS
 62
   191
100
AcDbCircle
 10
232.0
 20
9.75
 30
0.0
 40
0.75
  0
CIRCLE
  5
6B4
100
AcDbEntity
  8
1
  6
CONTINUOUS
 62
   191
100
AcDbCircle
 10
232.0
 20
2.75
 30
0.0
 40
0.75
  0
CIRCLE
  5
6B5
100
AcDbEntity
  8
1
  6
CONTINUOUS
 62
   191
100
AcDbCircle
 10
232.0
 20
-4.25
 30
0.0
 40
0.75
  0
CIRCLE
  5
6B6
100
AcDbEntity
  8
1
  6
CONTINUOUS
 62
   191
100
AcDbCircle
 10
232.0
 20
-11.25
 30
0.0
 40
0.75
  0
CIRCLE
  5
6B7
100
AcDbEntity
  8
1
  6
CONTINUOUS
 62
   191
100
AcDbCircle
 10
232.0
 20
-18.25
 30
0.0
 40
0.75
  0
CIRCLE
  5
6B8
100
AcDbEntity
  8
1
  6
CONTINUOUS
 62
   191
100
AcDbCircle
 10
232.0
 20
-25.25
 30
0.0
 40
0.75
  0
CIRCLE
  5
6B9
100
AcDbEntity
  8
1
  6
CONTINUOUS
 62
   191
100
AcDbCircle
 10
232.0
 20
-32.25
 30
0.0
 40
0.75
  0
CIRCLE
  5
6BA
100
AcDbEntity
  8
1
  6
CONTINUOUS
 62
   191
100
AcDbCircle
 10
232.0
 20
-39.25
 30
0.0
 40
0.75
  0
CIRCLE
  5
6BB
100
AcDbEntity
  8
1
  6
CONTINUOUS
 62
   191
100
AcDbCircle
 10
232.0
 20
-46.25
 30
0.0
 40
0.75
  0
CIRCLE
  5
6BC
100
AcDbEntity
  8
1
  6
CONTINUOUS
 62
   191
100
AcDbCircle
 10
232.0
 20
-80.25
 30
0.0
 40
0.75
  0
CIRCLE
  5
6BD
100
AcDbEntity
  8
1
  6
CONTINUOUS
 62
    20
100
AcDbCircle
 10
230.7
 20
-71.25
 30
0.0
 40
0.75
  0
CIRCLE
  5
6BE
100
AcDbEntity
  8
1
  6
CONTINUOUS
 62
    20
100
AcDbCircle
 10
228.95
 20
-76.75
 30
0.0
 40
2.75
  0
CIRCLE
  5
6BF
100
AcDbEntity
  8
1
  6
CONTINUOUS
 62
    20
100
AcDbCircle
 10
228.95
 20
-42.75
 30
0.0
 40
2.75
  0
CIRCLE
  5
6C0
100
AcDbEntity
  8
1
  6
CONTINUOUS
 62
    20
100
AcDbCircle
 10
228.95
 20
-35.75
 30
0.0
 40
2.75
  0
CIRCLE
  5
6C1
100
AcDbEntity
  8
1
  6
CONTINUOUS
 62
    20
100
AcDbCircle
 10
228.95
 20
-28.75
 30
0.0
 40
2.75
  0
CIRCLE
  5
6C2
100
AcDbEntity
  8
1
  6
CONTINUOUS
 62
    20
100
AcDbCircle
 10
228.95
 20
-21.75
 30
0.0
 40
2.75
  0
CIRCLE
  5
6C3
100
AcDbEntity
  8
1
  6
CONTINUOUS
 62
    20
100
AcDbCircle
 10
228.95
 20
-14.75
 30
0.0
 40
2.75
  0
CIRCLE
  5
6C4
100
AcDbEntity
  8
1
  6
CONTINUOUS
 62
    20
100
AcDbCircle
 10
228.95
 20
-7.75
 30
0.0
 40
2.75
  0
CIRCLE
  5
6C5
100
AcDbEntity
  8
1
  6
CONTINUOUS
 62
    20
100
AcDbCircle
 10
228.95
 20
-0.75
 30
0.0
 40
2.75
  0
CIRCLE
  5
6C6
100
AcDbEntity
  8
1
  6
CONTINUOUS
 62
    20
100
AcDbCircle
 10
228.95
 20
6.25
 30
0.0
 40
2.75
  0
CIRCLE
  5
6C7
100
AcDbEntity
  8
1
  6
CONTINUOUS
 62
    20
100
AcDbCircle
 10
228.95
 20
13.25
 30
0.0
 40
2.75
  0
CIRCLE
  5
6C8
100
AcDbEntity
  8
1
  6
CONTINUOUS
 62
    20
100
AcDbCircle
 10
228.95
 20
48.25
 30
0.0
 40
2.75
  0
CIRCLE
  5
6C9
100
AcDbEntity
  8
1
  6
CONTINUOUS
 62
    20
100
AcDbCircle
 10
228.95
 20
55.25
 30
0.0
 40
2.75
  0
CIRCLE
  5
6CA
100
AcDbEntity
  8
1
  6
CONTINUOUS
 62
    20
100
AcDbCircle
 10
228.95
 20
62.25
 30
0.0
 40
2.75
  0
ARC
  5
6CB
100
AcDbEntity
  8
1
  6
CONTINUOUS
 62
    20
100
AcDbCircle
 10
235.25
 20
120.75
 30
0.0
 40
1.0
100
AcDbArc
 50
0.0
 51
90.0
  0
ARC
  5
6CC
100
AcDbEntity
  8
1
  6
CONTINUOUS
 62
    20
100
AcDbCircle
 10
216.75
 20
120.75
 30
0.0
 40
1.0
100
AcDbArc
 50
90.0
 51
180.0
  0
ARC
  5
6CD
100
AcDbEntity
  8
1
  6
CONTINUOUS
 62
    20
100
AcDbCircle
 10
235.25
 20
-85.75
 30
0.0
 40
1.0
100
AcDbArc
 50
270.0
 51
0.0
  0
ARC
  5
6CE
100
AcDbEntity
  8
1
  6
CONTINUOUS
 62
    20
100
AcDbCircle
 10
216.75
 20
-85.75
 30
0.0
 40
1.0
100
AcDbArc
 50
180.0
 51
270.0
  0
LINE
  5
6CF
100
AcDbEntity
  8
1
  6
CONTINUOUS
 62
    20
100
AcDbLine
 10
216.75
 20
121.75
 30
0.0
 11
235.25
 21
121.75
 31
0.0
  0
LINE
  5
6D0
100
AcDbEntity
  8
1
  6
CONTINUOUS
 62
    20
100
AcDbLine
 10
236.25
 20
120.75
 30
0.0
 11
236.25
 21
-85.75
 31
0.0
  0
LINE
  5
6D1
100
AcDbEntity
  8
1
  6
CONTINUOUS
 62
    20
100
AcDbLine
 10
235.25
 20
-86.75
 30
0.0
 11
216.75
 21
-86.75
 31
0.0
  0
LINE
  5
6D2
100
AcDbEntity
  8
1
  6
CONTINUOUS
 62
    20
100
AcDbLine
 10
215.75
 20
120.75
 30
0.0
 11
215.75
 21
-85.75
 31
0.0
  0
CIRCLE
  5
6D3
100
AcDbEntity
  8
1
  6
CONTINUOUS
 62
    80
100
AcDbCircle
 10
228.95
 20
97.25
 30
0.0
 40
2.25
  0
CIRCLE
  5
6D4
100
AcDbEntity
  8
1
  6
CONTINUOUS
 62
    80
100
AcDbCircle
 10
228.95
 20
97.25
 30
0.0
 40
2.5
  0
CIRCLE
  5
6D5
100
AcDbEntity
  8
1
  6
CONTINUOUS
 62
     7
100
AcDbCircle
 10
230.377
 20
112.501
 30
0.0
 40
0.75
  0
LINE
  5
6D6
100
AcDbEntity
  8
1
  6
CONTINUOUS
 62
     7
100
AcDbLine
 10
227.677
 20
112.501
 30
0.0
 11
226.477
 21
112.501
 31
0.0
  0
MTEXT
  5
6D7
100
AcDbEntity
  8
1
  6
CONTINUOUS
 62
    50
100
AcDbMText
 10
223.502
 20
104.08225
 30
0.0
 40
1.0
 41
0.0
 71
     1
 72
     1
  1
\T0.750;\W1.136;\A1;ON
  7
MX_NOTE_STANDARD
 11
0.0
 21
1.0
 31
0.0
  0
MTEXT
  5
6D8
100
AcDbEntity
  8
1
  6
CONTINUOUS
 62
    50
100
AcDbMText
 10
231.502
 20
103.6135
 30
0.0
 40
1.0
 41
0.0
 71
     1
 72
     1
  1
\T0.750;\W1.136;\A1;OFF
  7
MX_NOTE_STANDARD
 11
0.0
 21
1.0
 31
0.0
  0
ARC
  5
6D9
100
AcDbEntity
  8
1
  6
CONTINUOUS
 62
    30
100
AcDbCircle
 10
215.5
 20
122.0
 30
0.0
 40
0.5
100
AcDbArc
 50
90.0
 51
180.0
  0
LINE
  5
6DA
100
AcDbEntity
  8
1
  6
CONTINUOUS
 62
    30
100
AcDbLine
 10
215.5
 20
122.5
 30
0.0
 11
236.5
 21
122.5
 31
0.0
  0
ARC
  5
6DB
100
AcDbEntity
  8
1
  6
CONTINUOUS
 62
    30
100
AcDbCircle
 10
215.5
 20
-86.9995
 30
0.0
 40
0.5
100
AcDbArc
 50
180.0
 51
270.0
  0
ARC
  5
6DC
100
AcDbEntity
  8
1
  6
CONTINUOUS
 62
    30
100
AcDbCircle
 10
236.5
 20
-87.0
 30
0.0
 40
0.5
100
AcDbArc
 50
270.0
 51
0.0
  0
LINE
  5
6DD
100
AcDbEntity
  8
1
  6
CONTINUOUS
 62
    30
100
AcDbLine
 10
236.5
 20
-87.5
 30
0.0
 11
215.5
 21
-87.5
 31
0.0
  0
LINE
  5
6DE
100
AcDbEntity
  8
1
  6
CONTINUOUS
 62
    30
100
AcDbLine
 10
215.0
 20
122.0
 30
0.0
 11
215.0
 21
-86.9995
 31
0.0
  0
LINE
  5
6DF
100
AcDbEntity
  8
1
  6
CONTINUOUS
 62
    30
100
AcDbLine
 10
237.0
 20
122.0
 30
0.0
 11
237.0
 21
-87.0
 31
0.0
  0
ARC
  5
6E0
100
AcDbEntity
  8
1
  6
CONTINUOUS
 62
   160
100
AcDbCircle
 10
231.878
 20
122.966
 30
0.0
 40
0.881
100
AcDbArc
 50
148.13252
 51
211.92268
  0
ARC
  5
6E1
100
AcDbEntity
  8
1
  6
CONTINUOUS
 62
   160
100
AcDbCircle
 10
234.122
 20
122.966
 30
0.0
 40
0.881
100
AcDbArc
 50
328.077314
 51
31.86747
  0
LINE
  5
6E2
100
AcDbEntity
  8
1
  6
CONTINUOUS
 62
   160
100
AcDbLine
 10
231.13
 20
122.5
 30
0.0
 11
234.87
 21
122.5
 31
0.0
  0
ARC
  5
6E3
100
AcDbEntity
  8
1
  6
CONTINUOUS
 62
   160
100
AcDbCircle
 10
233.0
 20
119.249
 30
0.0
 40
4.582
100
AcDbArc
 50
65.90798
 51
114.09202
  0
ARC
  5
6E4
100
AcDbEntity
  8
1
  6
CONTINUOUS
 62
   160
100
AcDbCircle
 10
217.878
 20
122.966
 30
0.0
 40
0.881
100
AcDbArc
 50
148.13252
 51
211.92268
  0
ARC
  5
6E5
100
AcDbEntity
  8
1
  6
CONTINUOUS
 62
   160
100
AcDbCircle
 10
220.122
 20
122.966
 30
0.0
 40
0.881
100
AcDbArc
 50
328.077314
 51
31.86747
  0
LINE
  5
6E6
100
AcDbEntity
  8
1
  6
CONTINUOUS
 62
   160
100
AcDbLine
 10
217.13
 20
122.5
 30
0.0
 11
220.87
 21
122.5
 31
0.0
  0
ARC
  5
6E7
100
AcDbEntity
  8
1
  6
CONTINUOUS
 62
   160
100
AcDbCircle
 10
219.0
 20
119.249
 30
0.0
 40
4.582
100
AcDbArc
 50
65.90798
 51
114.09202
  0
ARC
  5
6E8
100
AcDbEntity
  8
1
  6
CONTINUOUS
 62
   160
100
AcDbCircle
 10
231.878
 20
-87.966
 30
0.0
 40
0.881
100
AcDbArc
 50
148.13252
 51
211.92268
  0
ARC
  5
6E9
100
AcDbEntity
  8
1
  6
CONTINUOUS
 62
   160
100
AcDbCircle
 10
234.122
 20
-87.966
 30
0.0
 40
0.881
100
AcDbArc
 50
328.077314
 51
31.86747
  0
LINE
  5
6EA
100
AcDbEntity
  8
1
  6
CONTINUOUS
 62
   160
100
AcDbLine
 10
231.13
 20
-87.501
 30
0.0
 11
234.87
 21
-87.501
 31
0.0
  0
ARC
  5
6EB
100
AcDbEntity
  8
1
  6
CONTINUOUS
 62
   160
100
AcDbCircle
 10
233.0
 20
-84.249
 30
0.0
 40
4.582
100
AcDbArc
 50
245.91308
 51
294.086915
  0
ARC
  5
6EC
100
AcDbEntity
  8
1
  6
CONTINUOUS
 62
   160
100
AcDbCircle
 10
217.878
 20
-87.966
 30
0.0
 40
0.881
100
AcDbArc
 50
148.13252
 51
211.92268
  0
ARC
  5
6ED
100
AcDbEntity
  8
1
  6
CONTINUOUS
 62
   160
100
AcDbCircle
 10
220.122
 20
-87.966
 30
0.0
 40
0.881
100
AcDbArc
 50
328.077314
 51
31.86747
  0
LINE
  5
6EE
100
AcDbEntity
  8
1
  6
CONTINUOUS
 62
   160
100
AcDbLine
 10
217.13
 20
-87.501
 30
0.0
 11
220.87
 21
-87.501
 31
0.0
  0
ARC
  5
6EF
100
AcDbEntity
  8
1
  6
CONTINUOUS
 62
   160
100
AcDbCircle
 10
219.0
 20
-84.249
 30
0.0
 40
4.582
100
AcDbArc
 50
245.91308
 51
294.086915
  0
LINE
  5
6F0
100
AcDbEntity
  8
1
  6
CONTINUOUS
 62
    80
100
AcDbLine
 10
234.002
 20
118.251
 30
0.0
 11
234.002
 21
106.751
 31
0.0
  0
LINE
  5
6F1
100
AcDbEntity
  8
1
  6
CONTINUOUS
 62
    80
100
AcDbLine
 10
222.002
 20
118.251
 30
0.0
 11
234.002
 21
118.251
 31
0.0
  0
LINE
  5
6F2
100
AcDbEntity
  8
1
  6
CONTINUOUS
 62
    80
100
AcDbLine
 10
222.002
 20
118.251
 30
0.0
 11
222.002
 21
106.751
 31
0.0
  0
LINE
  5
6F3
100
AcDbEntity
  8
1
  6
CONTINUOUS
 62
    80
100
AcDbLine
 10
222.002
 20
106.751
 30
0.0
 11
225.002
 21
106.751
 31
0.0
  0
LINE
  5
6F4
100
AcDbEntity
  8
1
  6
CONTINUOUS
 62
    80
100
AcDbLine
 10
225.002
 20
106.751
 30
0.0
 11
225.002
 21
103.751
 31
0.0
  0
LINE
  5
6F5
100
AcDbEntity
  8
1
  6
CONTINUOUS
 62
    80
100
AcDbLine
 10
225.002
 20
103.751
 30
0.0
 11
231.002
 21
103.751
 31
0.0
  0
LINE
  5
6F6
100
AcDbEntity
  8
1
  6
CONTINUOUS
 62
    80
100
AcDbLine
 10
231.002
 20
106.751
 30
0.0
 11
231.002
 21
103.751
 31
0.0
  0
LINE
  5
6F7
100
AcDbEntity
  8
1
  6
CONTINUOUS
 62
    80
100
AcDbLine
 10
231.002
 20
106.751
 30
0.0
 11
234.002
 21
106.751
 31
0.0
  0
LINE
  5
6F8
100
AcDbEntity
  8
1
  6
CONTINUOUS
 62
    80
100
AcDbLine
 10
229.502
 20
118.251
 30
0.0
 11
229.502
 21
116.251
 31
0.0
  0
LINE
  5
6F9
100
AcDbEntity
  8
1
  6
CONTINUOUS
 62
    80
100
AcDbLine
 10
226.502
 20
118.251
 30
0.0
 11
226.502
 21
116.251
 31
0.0
  0
LINE
  5
6FA
100
AcDbEntity
  8
1
  6
CONTINUOUS
 62
    80
100
AcDbLine
 10
222.002
 20
116.251
 30
0.0
 11
234.002
 21
116.251
 31
0.0
  0
LINE
  5
6FB
100
AcDbEntity
  8
1
  6
CONTINUOUS
 62
    80
100
AcDbLine
 10
222.002
 20
108.751
 30
0.0
 11
234.002
 21
108.751
 31
0.0
  0
LINE
  5
6FC
100
AcDbEntity
  8
1
  6
CONTINUOUS
 62
    80
100
AcDbLine
 10
229.502
 20
108.751
 30
0.0
 11
229.502
 21
103.751
 31
0.0
  0
LINE
  5
6FD
100
AcDbEntity
  8
1
  6
CONTINUOUS
 62
    80
100
AcDbLine
 10
226.502
 20
108.751
 30
0.0
 11
226.502
 21
103.751
 31
0.0
  0
LINE
  5
6FE
100
AcDbEntity
  8
1
  6
CONTINUOUS
 62
    80
100
AcDbLine
 10
233.252
 20
116.251
 30
0.0
 11
233.252
 21
108.751
 31
0.0
  0
LINE
  5
6FF
100
AcDbEntity
  8
1
  6
CONTINUOUS
 62
    80
100
AcDbLine
 10
222.752
 20
116.251
 30
0.0
 11
222.752
 21
108.751
 31
0.0
  0
LINE
  5
700
100
AcDbEntity
  8
1
  6
CONTINUOUS
 62
    80
100
AcDbLine
 10
226.752
 20
107.501
 30
0.0
 11
226.752
 21
105.001
 31
0.0
  0
LINE
  5
701
100
AcDbEntity
  8
1
  6
CONTINUOUS
 62
    80
100
AcDbLine
 10
226.752
 20
105.001
 30
0.0
 11
229.252
 21
105.001
 31
0.0
  0
LINE
  5
702
100
AcDbEntity
  8
1
  6
CONTINUOUS
 62
    80
100
AcDbLine
 10
229.252
 20
107.501
 30
0.0
 11
229.252
 21
105.001
 31
0.0
  0
LINE
  5
703
100
AcDbEntity
  8
1
  6
CONTINUOUS
 62
    80
100
AcDbLine
 10
226.752
 20
107.501
 30
0.0
 11
229.252
 21
107.501
 31
0.0
  0
LINE
  5
704
100
AcDbEntity
  8
1
  6
CONTINUOUS
 62
    80
100
AcDbLine
 10
224.252
 20
115.001
 30
0.0
 11
224.252
 21
110.001
 31
0.0
  0
LINE
  5
705
100
AcDbEntity
  8
1
  6
CONTINUOUS
 62
    80
100
AcDbLine
 10
224.252
 20
110.001
 30
0.0
 11
231.752
 21
110.001
 31
0.0
  0
LINE
  5
706
100
AcDbEntity
  8
1
  6
CONTINUOUS
 62
    80
100
AcDbLine
 10
231.752
 20
115.001
 30
0.0
 11
231.752
 21
110.001
 31
0.0
  0
LINE
  5
707
100
AcDbEntity
  8
1
  6
CONTINUOUS
 62
    80
100
AcDbLine
 10
224.252
 20
115.001
 30
0.0
 11
231.752
 21
115.001
 31
0.0
  0
LINE
  5
708
100
AcDbEntity
  8
1
  6
CONTINUOUS
 62
    80
100
AcDbLine
 10
225.502
 20
115.001
 30
0.0
 11
225.502
 21
110.001
 31
0.0
  0
CIRCLE
  5
709
100
AcDbEntity
  8
1
  6
CONTINUOUS
 62
    20
100
AcDbCircle
 10
228.95
 20
-76.75
 30
0.0
 40
2.75
  0
CIRCLE
  5
70A
100
AcDbEntity
  8
1
  6
CONTINUOUS
 62
    80
100
AcDbCircle
 10
228.95
 20
-76.75
 30
0.0
 40
2.5
  0
CIRCLE
  5
70B
100
AcDbEntity
  8
1
  6
CONTINUOUS
 62
    80
100
AcDbCircle
 10
228.95
 20
-76.75
 30
0.0
 40
2.25
  0
CIRCLE
  5
70C
100
AcDbEntity
  8
1
  6
CONTINUOUS
 62
    20
100
AcDbCircle
 10
228.95
 20
-42.75
 30
0.0
 40
2.75
  0
CIRCLE
  5
70D
100
AcDbEntity
  8
1
  6
CONTINUOUS
 62
    20
100
AcDbCircle
 10
228.95
 20
-35.75
 30
0.0
 40
2.75
  0
CIRCLE
  5
70E
100
AcDbEntity
  8
1
  6
CONTINUOUS
 62
    20
100
AcDbCircle
 10
228.95
 20
-28.75
 30
0.0
 40
2.75
  0
CIRCLE
  5
70F
100
AcDbEntity
  8
1
  6
CONTINUOUS
 62
    20
100
AcDbCircle
 10
228.95
 20
-21.75
 30
0.0
 40
2.75
  0
CIRCLE
  5
710
100
AcDbEntity
  8
1
  6
CONTINUOUS
 62
    20
100
AcDbCircle
 10
228.95
 20
-14.75
 30
0.0
 40
2.75
  0
CIRCLE
  5
711
100
AcDbEntity
  8
1
  6
CONTINUOUS
 62
    20
100
AcDbCircle
 10
228.95
 20
-7.75
 30
0.0
 40
2.75
  0
CIRCLE
  5
712
100
AcDbEntity
  8
1
  6
CONTINUOUS
 62
    20
100
AcDbCircle
 10
228.95
 20
-0.75
 30
0.0
 40
2.75
  0
CIRCLE
  5
713
100
AcDbEntity
  8
1
  6
CONTINUOUS
 62
    20
100
AcDbCircle
 10
228.95
 20
6.25
 30
0.0
 40
2.75
  0
CIRCLE
  5
714
100
AcDbEntity
  8
1
  6
CONTINUOUS
 62
    20
100
AcDbCircle
 10
228.95
 20
13.25
 30
0.0
 40
2.75
  0
CIRCLE
  5
715
100
AcDbEntity
  8
1
  6
CONTINUOUS
 62
    20
100
AcDbCircle
 10
228.95
 20
48.25
 30
0.0
 40
2.75
  0
CIRCLE
  5
716
100
AcDbEntity
  8
1
  6
CONTINUOUS
 62
    20
100
AcDbCircle
 10
228.95
 20
55.25
 30
0.0
 40
2.75
  0
CIRCLE
  5
717
100
AcDbEntity
  8
1
  6
CONTINUOUS
 62
    20
100
AcDbCircle
 10
228.95
 20
62.25
 30
0.0
 40
2.75
  0
CIRCLE
  5
718
100
AcDbEntity
  8
1
  6
CONTINUOUS
 62
    20
100
AcDbCircle
 10
228.95
 20
97.25
 30
0.0
 40
2.75
  0
CIRCLE
  5
719
100
AcDbEntity
  8
1
  6
CONTINUOUS
 62
    20
100
AcDbCircle
 10
230.7
 20
-71.25
 30
0.0
 40
0.75
  0
CIRCLE
  5
71A
100
AcDbEntity
  8
1
  6
CONTINUOUS
 62
    20
100
AcDbCircle
 10
230.7
 20
-71.25
 30
0.0
 40
0.75
  0
ARC
  5
71B
100
AcDbEntity
  8
1
  6
CONTINUOUS
 62
    30
100
AcDbCircle
 10
236.5
 20
122.0
 30
0.0
 40
0.5
100
AcDbArc
 50
0.0
 51
90.0
  0
CIRCLE
  5
71C
100
AcDbEntity
  8
1
  6
CONTINUOUS
 62
    80
100
AcDbCircle
 10
228.95
 20
-42.75
 30
0.0
 40
2.25
  0
CIRCLE
  5
71D
100
AcDbEntity
  8
1
  6
CONTINUOUS
 62
    80
100
AcDbCircle
 10
228.95
 20
-42.75
 30
0.0
 40
2.5
  0
CIRCLE
  5
71E
100
AcDbEntity
  8
1
  6
CONTINUOUS
 62
    80
100
AcDbCircle
 10
228.95
 20
-35.75
 30
0.0
 40
2.25
  0
CIRCLE
  5
71F
100
AcDbEntity
  8
1
  6
CONTINUOUS
 62
    80
100
AcDbCircle
 10
228.95
 20
-35.75
 30
0.0
 40
2.5
  0
CIRCLE
  5
720
100
AcDbEntity
  8
1
  6
CONTINUOUS
 62
    80
100
AcDbCircle
 10
228.95
 20
-28.75
 30
0.0
 40
2.25
  0
CIRCLE
  5
721
100
AcDbEntity
  8
1
  6
CONTINUOUS
 62
    80
100
AcDbCircle
 10
228.95
 20
-28.75
 30
0.0
 40
2.5
  0
CIRCLE
  5
722
100
AcDbEntity
  8
1
  6
CONTINUOUS
 62
    80
100
AcDbCircle
 10
228.95
 20
-21.75
 30
0.0
 40
2.25
  0
CIRCLE
  5
723
100
AcDbEntity
  8
1
  6
CONTINUOUS
 62
    80
100
AcDbCircle
 10
228.95
 20
-21.75
 30
0.0
 40
2.5
  0
CIRCLE
  5
724
100
AcDbEntity
  8
1
  6
CONTINUOUS
 62
    80
100
AcDbCircle
 10
228.95
 20
-14.75
 30
0.0
 40
2.25
  0
CIRCLE
  5
725
100
AcDbEntity
  8
1
  6
CONTINUOUS
 62
    80
100
AcDbCircle
 10
228.95
 20
-14.75
 30
0.0
 40
2.5
  0
CIRCLE
  5
726
100
AcDbEntity
  8
1
  6
CONTINUOUS
 62
    80
100
AcDbCircle
 10
228.95
 20
-7.75
 30
0.0
 40
2.25
  0
CIRCLE
  5
727
100
AcDbEntity
  8
1
  6
CONTINUOUS
 62
    80
100
AcDbCircle
 10
228.95
 20
-7.75
 30
0.0
 40
2.5
  0
CIRCLE
  5
728
100
AcDbEntity
  8
1
  6
CONTINUOUS
 62
    80
100
AcDbCircle
 10
228.95
 20
-0.75
 30
0.0
 40
2.25
  0
CIRCLE
  5
729
100
AcDbEntity
  8
1
  6
CONTINUOUS
 62
    80
100
AcDbCircle
 10
228.95
 20
-0.75
 30
0.0
 40
2.5
  0
CIRCLE
  5
72A
100
AcDbEntity
  8
1
  6
CONTINUOUS
 62
    80
100
AcDbCircle
 10
228.95
 20
6.25
 30
0.0
 40
2.25
  0
CIRCLE
  5
72B
100
AcDbEntity
  8
1
  6
CONTINUOUS
 62
    80
100
AcDbCircle
 10
228.95
 20
6.25
 30
0.0
 40
2.5
  0
CIRCLE
  5
72C
100
AcDbEntity
  8
1
  6
CONTINUOUS
 62
    80
100
AcDbCircle
 10
228.95
 20
13.25
 30
0.0
 40
2.25
  0
CIRCLE
  5
72D
100
AcDbEntity
  8
1
  6
CONTINUOUS
 62
    80
100
AcDbCircle
 10
228.95
 20
13.25
 30
0.0
 40
2.5
  0
CIRCLE
  5
72E
100
AcDbEntity
  8
1
  6
CONTINUOUS
 62
    80
100
AcDbCircle
 10
228.95
 20
48.25
 30
0.0
 40
2.25
  0
CIRCLE
  5
72F
100
AcDbEntity
  8
1
  6
CONTINUOUS
 62
    80
100
AcDbCircle
 10
228.95
 20
48.25
 30
0.0
 40
2.5
  0
CIRCLE
  5
730
100
AcDbEntity
  8
1
  6
CONTINUOUS
 62
    80
100
AcDbCircle
 10
228.95
 20
55.25
 30
0.0
 40
2.25
  0
CIRCLE
  5
731
100
AcDbEntity
  8
1
  6
CONTINUOUS
 62
    80
100
AcDbCircle
 10
228.95
 20
55.25
 30
0.0
 40
2.5
  0
CIRCLE
  5
732
100
AcDbEntity
  8
1
  6
CONTINUOUS
 62
    80
100
AcDbCircle
 10
228.95
 20
62.25
 30
0.0
 40
2.25
  0
CIRCLE
  5
733
100
AcDbEntity
  8
1
  6
CONTINUOUS
 62
    80
100
AcDbCircle
 10
228.95
 20
62.25
 30
0.0
 40
2.5
  0
ARC
  5
734
100
AcDbEntity
  8
1
  6
CONTINUOUS
 62
    80
100
AcDbCircle
 10
232.752
 20
115.751
 30
0.0
 40
0.5
100
AcDbArc
 50
0.0
 51
90.0
  0
ARC
  5
735
100
AcDbEntity
  8
1
  6
CONTINUOUS
 62
    80
100
AcDbCircle
 10
232.752
 20
109.251
 30
0.0
 40
0.5
100
AcDbArc
 50
270.0
 51
0.0
  0
ARC
  5
736
100
AcDbEntity
  8
1
  6
CONTINUOUS
 62
    80
100
AcDbCircle
 10
223.252
 20
109.251
 30
0.0
 40
0.5
100
AcDbArc
 50
180.0
 51
270.0
  0
ARC
  5
737
100
AcDbEntity
  8
1
  6
CONTINUOUS
 62
    80
100
AcDbCircle
 10
223.252
 20
115.751
 30
0.0
 40
0.5
100
AcDbArc
 50
90.0
 51
180.0
  0
LINE
  5
738
100
AcDbEntity
  8
1
  6
CONTINUOUS
 62
    50
100
AcDbLine
 10
182.5
 20
-131.867
 30
0.0
 11
183.0
 21
-131.867
 31
0.0
  0
LINE
  5
739
100
AcDbEntity
  8
1
  6
CONTINUOUS
 62
    50
100
AcDbLine
 10
183.0
 20
-131.867
 30
0.0
 11
184.75
 21
-127.367
 31
0.0
  0
LINE
  5
73A
100
AcDbEntity
  8
1
  6
CONTINUOUS
 62
    50
100
AcDbLine
 10
184.75
 20
-127.367
 30
0.0
 11
184.75
 21
-124.367
 31
0.0
  0
LINE
  5
73B
100
AcDbEntity
  8
1
  6
CONTINUOUS
 62
    50
100
AcDbLine
 10
183.0
 20
-119.867
 30
0.0
 11
184.75
 21
-124.367
 31
0.0
  0
LINE
  5
73C
100
AcDbEntity
  8
1
  6
CONTINUOUS
 62
    50
100
AcDbLine
 10
182.5
 20
-119.867
 30
0.0
 11
183.0
 21
-119.867
 31
0.0
  0
LINE
  5
73D
100
AcDbEntity
  8
1
  6
CONTINUOUS
 62
    80
100
AcDbLine
 10
183.25
 20
-128.7495
 30
0.0
 11
183.25
 21
-123.9495
 31
0.0
  0
LINE
  5
73E
100
AcDbEntity
  8
1
  6
CONTINUOUS
 62
    80
100
AcDbLine
 10
183.15
 20
-128.8495
 30
0.0
 11
182.5
 21
-128.8495
 31
0.0
  0
LINE
  5
73F
100
AcDbEntity
  8
1
  6
CONTINUOUS
 62
    80
100
AcDbLine
 10
183.15
 20
-123.8495
 30
0.0
 11
182.5
 21
-123.8495
 31
0.0
  0
ARC
  5
740
100
AcDbEntity
  8
1
  6
CONTINUOUS
 62
    80
100
AcDbCircle
 10
183.15
 20
-128.7495
 30
0.0
 40
0.1
100
AcDbArc
 50
270.0
 51
0.0
  0
ARC
  5
741
100
AcDbEntity
  8
1
  6
CONTINUOUS
 62
    80
100
AcDbCircle
 10
183.15
 20
-123.9495
 30
0.0
 40
0.1
100
AcDbArc
 50
0.0
 51
90.0
  0
LINE
  5
742
100
AcDbEntity
  8
1
  6
CONTINUOUS
 62
    50
100
AcDbLine
 10
182.5
 20
154.4995
 30
0.0
 11
183.0
 21
154.4995
 31
0.0
  0
LINE
  5
743
100
AcDbEntity
  8
1
  6
CONTINUOUS
 62
    50
100
AcDbLine
 10
183.0
 20
154.4995
 30
0.0
 11
184.75
 21
158.9995
 31
0.0
  0
LINE
  5
744
100
AcDbEntity
  8
1
  6
CONTINUOUS
 62
    50
100
AcDbLine
 10
184.75
 20
158.9995
 30
0.0
 11
184.75
 21
161.9995
 31
0.0
  0
LINE
  5
745
100
AcDbEntity
  8
1
  6
CONTINUOUS
 62
    50
100
AcDbLine
 10
183.0
 20
166.4995
 30
0.0
 11
184.75
 21
161.9995
 31
0.0
  0
LINE
  5
746
100
AcDbEntity
  8
1
  6
CONTINUOUS
 62
    50
100
AcDbLine
 10
182.5
 20
166.4995
 30
0.0
 11
183.0
 21
166.4995
 31
0.0
  0
MTEXT
  5
747
100
AcDbEntity
  8
1
  6
CONTINUOUS
 62
   191
100
AcDbMText
 10
218.502
 20
108.826
 30
0.0
 40
1.6
 41
0.0
 71
     1
 72
     1
  1
\T0.750;\W1.065;\A1;POWER
  7
MX_NOTE_STANDARD
 11
0.0
 21
1.0
 31
0.0
  0
LINE
  5
748
100
AcDbEntity
  8
1
  6
CONTINUOUS
 62
   191
100
AcDbLine
 10
219.502
 20
-85.5
 30
0.0
 11
219.502
 21
108.104
 31
0.0
  0
LINE
  5
749
100
AcDbEntity
  8
1
  6
CONTINUOUS
 62
   191
100
AcDbLine
 10
219.102
 20
-85.5
 30
0.0
 11
219.102
 21
108.104
 31
0.0
  0
LINE
  5
74A
100
AcDbEntity
  8
1
  6
CONTINUOUS
 62
   191
100
AcDbLine
 10
219.502
 20
116.9855
 30
0.0
 11
219.502
 21
120.5
 31
0.0
  0
LINE
  5
74B
100
AcDbEntity
  8
1
  6
CONTINUOUS
 62
   191
100
AcDbLine
 10
219.102
 20
116.9855
 30
0.0
 11
219.102
 21
120.5
 31
0.0
  0
LINE
  5
74C
100
AcDbEntity
  8
1
  6
CONTINUOUS
 62
   191
100
AcDbLine
 10
219.102
 20
116.9855
 30
0.0
 11
219.502
 21
116.9855
 31
0.0
  0
LINE
  5
74D
100
AcDbEntity
  8
1
  6
CONTINUOUS
 62
   191
100
AcDbLine
 10
219.102
 20
108.104
 30
0.0
 11
219.502
 21
108.104
 31
0.0
  0
LINE
  5
74E
100
AcDbEntity
  8
1
  6
CONTINUOUS
 62
   191
100
AcDbLine
 10
219.102
 20
-85.5
 30
0.0
 11
219.502
 21
-85.5
 31
0.0
  0
LINE
  5
74F
100
AcDbEntity
  8
1
  6
CONTINUOUS
 62
   191
100
AcDbLine
 10
219.102
 20
120.5
 30
0.0
 11
219.502
 21
120.5
 31
0.0
  0
SOLID
  5
750
100
AcDbEntity
  8
1
  6
CONTINUOUS
 62
   191
100
AcDbTrace
 10
219.502
 20
116.9855
 30
0.0
 11
219.502
 21
120.5
 31
0.0
 12
219.102
 22
116.9855
 32
0.0
 13
219.102
 23
120.5
 33
0.0
  0
SOLID
  5
751
100
AcDbEntity
  8
1
  6
CONTINUOUS
 62
   191
100
AcDbTrace
 10
219.502
 20
-85.5
 30
0.0
 11
219.502
 21
108.104
 31
0.0
 12
219.102
 22
-85.5
 32
0.0
 13
219.102
 23
108.104
 33
0.0
  0
ARC
  5
752
100
AcDbEntity
  8
1
  6
CONTINUOUS
 62
   160
100
AcDbCircle
 10
57.134492
 20
-83.621997
 30
0.0
 40
0.881
100
AcDbArc
 50
238.104516
 51
261.218968
  0
ARC
  5
753
100
AcDbEntity
  8
1
  6
CONTINUOUS
 62
   160
100
AcDbCircle
 10
57.134508
 20
-81.377997
 30
0.0
 40
0.881
100
AcDbArc
 50
98.782047
 51
121.894686
  0
ARC
  5
754
100
AcDbEntity
  8
1
  6
CONTINUOUS
 62
   160
100
AcDbCircle
 10
60.8515
 20
-82.500022
 30
0.0
 40
4.5815
100
AcDbArc
 50
155.910136
 51
204.089066
  0
ARC
  5
755
100
AcDbEntity
  8
1
  6
CONTINUOUS
 62
   160
100
AcDbCircle
 10
57.134492
 20
-118.371497
 30
0.0
 40
0.881
100
AcDbArc
 50
238.104516
 51
261.235421
  0
ARC
  5
756
100
AcDbEntity
  8
1
  6
CONTINUOUS
 62
   160
100
AcDbCircle
 10
60.8515
 20
-117.249522
 30
0.0
 40
4.5815
100
AcDbArc
 50
155.910136
 51
204.089066
  0
ARC
  5
757
100
AcDbEntity
  8
1
  6
CONTINUOUS
 62
   160
100
AcDbCircle
 10
57.134508
 20
-116.127497
 30
0.0
 40
0.881
100
AcDbArc
 50
98.765594
 51
121.894686
  0
CIRCLE
  5
758
100
AcDbEntity
  8
シンボル
  6
CONTINUOUS
 62
    50
100
AcDbCircle
 10
82.5
 20
86.900216
 30
0.0
 40
1.125
  0
CIRCLE
  5
759
100
AcDbEntity
  8
シンボル
  6
CONTINUOUS
 62
    50
100
AcDbCircle
 10
86.0
 20
86.900216
 30
0.0
 40
1.125
  0
CIRCLE
  5
75A
100
AcDbEntity
  8
シンボル
  6
CONTINUOUS
 62
    50
100
AcDbCircle
 10
89.5
 20
86.900216
 30
0.0
 40
1.125
  0
CIRCLE
  5
75B
100
AcDbEntity
  8
シンボル
  6
CONTINUOUS
 62
    50
100
AcDbCircle
 10
93.0
 20
86.900216
 30
0.0
 40
1.125
  0
CIRCLE
  5
75C
100
AcDbEntity
  8
シンボル
  6
CONTINUOUS
 62
    50
100
AcDbCircle
 10
163.0
 20
86.900216
 30
0.0
 40
1.125
  0
CIRCLE
  5
75D
100
AcDbEntity
  8
シンボル
  6
CONTINUOUS
 62
    50
100
AcDbCircle
 10
159.5
 20
86.900216
 30
0.0
 40
1.125
  0
CIRCLE
  5
75E
100
AcDbEntity
  8
シンボル
  6
CONTINUOUS
 62
    50
100
AcDbCircle
 10
156.0
 20
86.900216
 30
0.0
 40
1.125
  0
CIRCLE
  5
75F
100
AcDbEntity
  8
シンボル
  6
CONTINUOUS
 62
    50
100
AcDbCircle
 10
96.5
 20
86.900216
 30
0.0
 40
1.125
  0
CIRCLE
  5
760
100
AcDbEntity
  8
シンボル
  6
CONTINUOUS
 62
    50
100
AcDbCircle
 10
100.0
 20
86.900216
 30
0.0
 40
1.125
  0
CIRCLE
  5
761
100
AcDbEntity
  8
シンボル
  6
CONTINUOUS
 62
    50
100
AcDbCircle
 10
103.5
 20
86.900216
 30
0.0
 40
1.125
  0
CIRCLE
  5
762
100
AcDbEntity
  8
シンボル
  6
CONTINUOUS
 62
    50
100
AcDbCircle
 10
107.0
 20
86.900216
 30
0.0
 40
1.125
  0
CIRCLE
  5
763
100
AcDbEntity
  8
シンボル
  6
CONTINUOUS
 62
    50
100
AcDbCircle
 10
110.5
 20
86.900216
 30
0.0
 40
1.125
  0
CIRCLE
  5
764
100
AcDbEntity
  8
シンボル
  6
CONTINUOUS
 62
    50
100
AcDbCircle
 10
114.0
 20
86.900216
 30
0.0
 40
1.125
  0
CIRCLE
  5
765
100
AcDbEntity
  8
シンボル
  6
CONTINUOUS
 62
    50
100
AcDbCircle
 10
117.5
 20
86.900216
 30
0.0
 40
1.125
  0
CIRCLE
  5
766
100
AcDbEntity
  8
シンボル
  6
CONTINUOUS
 62
    50
100
AcDbCircle
 10
121.0
 20
86.900216
 30
0.0
 40
1.125
  0
CIRCLE
  5
767
100
AcDbEntity
  8
シンボル
  6
CONTINUOUS
 62
    50
100
AcDbCircle
 10
124.5
 20
86.900216
 30
0.0
 40
1.125
  0
CIRCLE
  5
768
100
AcDbEntity
  8
シンボル
  6
CONTINUOUS
 62
    50
100
AcDbCircle
 10
128.0
 20
86.900216
 30
0.0
 40
1.125
  0
CIRCLE
  5
769
100
AcDbEntity
  8
シンボル
  6
CONTINUOUS
 62
    50
100
AcDbCircle
 10
131.5
 20
86.900216
 30
0.0
 40
1.125
  0
CIRCLE
  5
76A
100
AcDbEntity
  8
シンボル
  6
CONTINUOUS
 62
    50
100
AcDbCircle
 10
135.0
 20
86.900216
 30
0.0
 40
1.125
  0
CIRCLE
  5
76B
100
AcDbEntity
  8
シンボル
  6
CONTINUOUS
 62
    50
100
AcDbCircle
 10
138.5
 20
86.900216
 30
0.0
 40
1.125
  0
CIRCLE
  5
76C
100
AcDbEntity
  8
シンボル
  6
CONTINUOUS
 62
    50
100
AcDbCircle
 10
142.0
 20
86.900216
 30
0.0
 40
1.125
  0
CIRCLE
  5
76D
100
AcDbEntity
  8
シンボル
  6
CONTINUOUS
 62
    50
100
AcDbCircle
 10
145.5
 20
86.900216
 30
0.0
 40
1.125
  0
CIRCLE
  5
76E
100
AcDbEntity
  8
シンボル
  6
CONTINUOUS
 62
    50
100
AcDbCircle
 10
149.0
 20
86.900216
 30
0.0
 40
1.125
  0
CIRCLE
  5
76F
100
AcDbEntity
  8
シンボル
  6
CONTINUOUS
 62
    50
100
AcDbCircle
 10
152.5
 20
86.900216
 30
0.0
 40
1.125
  0
CIRCLE
  5
770
100
AcDbEntity
  8
シンボル
  6
CONTINUOUS
 62
    50
100
AcDbCircle
 10
150.75
 20
83.400216
 30
0.0
 40
1.125
  0
CIRCLE
  5
771
100
AcDbEntity
  8
シンボル
  6
CONTINUOUS
 62
    50
100
AcDbCircle
 10
147.25
 20
83.400216
 30
0.0
 40
1.125
  0
CIRCLE
  5
772
100
AcDbEntity
  8
シンボル
  6
CONTINUOUS
 62
    50
100
AcDbCircle
 10
143.75
 20
83.400216
 30
0.0
 40
1.125
  0
CIRCLE
  5
773
100
AcDbEntity
  8
シンボル
  6
CONTINUOUS
 62
    50
100
AcDbCircle
 10
140.25
 20
83.400216
 30
0.0
 40
1.125
  0
CIRCLE
  5
774
100
AcDbEntity
  8
シンボル
  6
CONTINUOUS
 62
    50
100
AcDbCircle
 10
136.75
 20
83.400216
 30
0.0
 40
1.125
  0
CIRCLE
  5
775
100
AcDbEntity
  8
シンボル
  6
CONTINUOUS
 62
    50
100
AcDbCircle
 10
133.25
 20
83.400216
 30
0.0
 40
1.125
  0
CIRCLE
  5
776
100
AcDbEntity
  8
シンボル
  6
CONTINUOUS
 62
    50
100
AcDbCircle
 10
129.75
 20
83.400216
 30
0.0
 40
1.125
  0
CIRCLE
  5
777
100
AcDbEntity
  8
シンボル
  6
CONTINUOUS
 62
    50
100
AcDbCircle
 10
126.25
 20
83.400216
 30
0.0
 40
1.125
  0
CIRCLE
  5
778
100
AcDbEntity
  8
シンボル
  6
CONTINUOUS
 62
    50
100
AcDbCircle
 10
122.75
 20
83.400216
 30
0.0
 40
1.125
  0
CIRCLE
  5
779
100
AcDbEntity
  8
シンボル
  6
CONTINUOUS
 62
    50
100
AcDbCircle
 10
119.25
 20
83.400216
 30
0.0
 40
1.125
  0
CIRCLE
  5
77A
100
AcDbEntity
  8
シンボル
  6
CONTINUOUS
 62
    50
100
AcDbCircle
 10
115.75
 20
83.400216
 30
0.0
 40
1.125
  0
CIRCLE
  5
77B
100
AcDbEntity
  8
シンボル
  6
CONTINUOUS
 62
    50
100
AcDbCircle
 10
112.25
 20
83.400216
 30
0.0
 40
1.125
  0
CIRCLE
  5
77C
100
AcDbEntity
  8
シンボル
  6
CONTINUOUS
 62
    50
100
AcDbCircle
 10
108.75
 20
83.400216
 30
0.0
 40
1.125
  0
CIRCLE
  5
77D
100
AcDbEntity
  8
シンボル
  6
CONTINUOUS
 62
    50
100
AcDbCircle
 10
105.25
 20
83.400216
 30
0.0
 40
1.125
  0
CIRCLE
  5
77E
100
AcDbEntity
  8
シンボル
  6
CONTINUOUS
 62
    50
100
AcDbCircle
 10
101.75
 20
83.400216
 30
0.0
 40
1.125
  0
CIRCLE
  5
77F
100
AcDbEntity
  8
シンボル
  6
CONTINUOUS
 62
    50
100
AcDbCircle
 10
98.25
 20
83.400216
 30
0.0
 40
1.125
  0
CIRCLE
  5
780
100
AcDbEntity
  8
シンボル
  6
CONTINUOUS
 62
    50
100
AcDbCircle
 10
154.25
 20
83.400216
 30
0.0
 40
1.125
  0
CIRCLE
  5
781
100
AcDbEntity
  8
シンボル
  6
CONTINUOUS
 62
    50
100
AcDbCircle
 10
157.75
 20
83.400216
 30
0.0
 40
1.125
  0
CIRCLE
  5
782
100
AcDbEntity
  8
シンボル
  6
CONTINUOUS
 62
    50
100
AcDbCircle
 10
161.25
 20
83.400216
 30
0.0
 40
1.125
  0
CIRCLE
  5
783
100
AcDbEntity
  8
シンボル
  6
CONTINUOUS
 62
    50
100
AcDbCircle
 10
164.75
 20
83.400216
 30
0.0
 40
1.125
  0
CIRCLE
  5
784
100
AcDbEntity
  8
シンボル
  6
CONTINUOUS
 62
    50
100
AcDbCircle
 10
91.25
 20
83.400216
 30
0.0
 40
1.125
  0
CIRCLE
  5
785
100
AcDbEntity
  8
シンボル
  6
CONTINUOUS
 62
    50
100
AcDbCircle
 10
87.75
 20
83.400216
 30
0.0
 40
1.125
  0
CIRCLE
  5
786
100
AcDbEntity
  8
シンボル
  6
CONTINUOUS
 62
    50
100
AcDbCircle
 10
84.25
 20
83.400216
 30
0.0
 40
1.125
  0
CIRCLE
  5
787
100
AcDbEntity
  8
シンボル
  6
CONTINUOUS
 62
    50
100
AcDbCircle
 10
80.75
 20
83.400216
 30
0.0
 40
1.125
  0
CIRCLE
  5
788
100
AcDbEntity
  8
シンボル
  6
CONTINUOUS
 62
    50
100
AcDbCircle
 10
94.75
 20
83.400216
 30
0.0
 40
1.125
  0
CIRCLE
  5
789
100
AcDbEntity
  8
シンボル
  6
CONTINUOUS
 62
    50
100
AcDbCircle
 10
80.75
 20
118.400216
 30
0.0
 40
1.125
  0
CIRCLE
  5
78A
100
AcDbEntity
  8
シンボル
  6
CONTINUOUS
 62
    50
100
AcDbCircle
 10
84.25
 20
118.400216
 30
0.0
 40
1.125
  0
CIRCLE
  5
78B
100
AcDbEntity
  8
シンボル
  6
CONTINUOUS
 62
    50
100
AcDbCircle
 10
87.75
 20
118.400216
 30
0.0
 40
1.125
  0
CIRCLE
  5
78C
100
AcDbEntity
  8
シンボル
  6
CONTINUOUS
 62
    50
100
AcDbCircle
 10
161.25
 20
118.400216
 30
0.0
 40
1.125
  0
CIRCLE
  5
78D
100
AcDbEntity
  8
シンボル
  6
CONTINUOUS
 62
    50
100
AcDbCircle
 10
157.75
 20
118.400216
 30
0.0
 40
1.125
  0
CIRCLE
  5
78E
100
AcDbEntity
  8
シンボル
  6
CONTINUOUS
 62
    50
100
AcDbCircle
 10
154.25
 20
118.400216
 30
0.0
 40
1.125
  0
CIRCLE
  5
78F
100
AcDbEntity
  8
シンボル
  6
CONTINUOUS
 62
    50
100
AcDbCircle
 10
91.25
 20
118.400216
 30
0.0
 40
1.125
  0
CIRCLE
  5
790
100
AcDbEntity
  8
シンボル
  6
CONTINUOUS
 62
    50
100
AcDbCircle
 10
94.75
 20
118.400216
 30
0.0
 40
1.125
  0
CIRCLE
  5
791
100
AcDbEntity
  8
シンボル
  6
CONTINUOUS
 62
    50
100
AcDbCircle
 10
98.25
 20
118.400216
 30
0.0
 40
1.125
  0
CIRCLE
  5
792
100
AcDbEntity
  8
シンボル
  6
CONTINUOUS
 62
    50
100
AcDbCircle
 10
101.75
 20
118.400216
 30
0.0
 40
1.125
  0
CIRCLE
  5
793
100
AcDbEntity
  8
シンボル
  6
CONTINUOUS
 62
    50
100
AcDbCircle
 10
105.25
 20
118.400216
 30
0.0
 40
1.125
  0
CIRCLE
  5
794
100
AcDbEntity
  8
シンボル
  6
CONTINUOUS
 62
    50
100
AcDbCircle
 10
108.75
 20
118.400216
 30
0.0
 40
1.125
  0
CIRCLE
  5
795
100
AcDbEntity
  8
シンボル
  6
CONTINUOUS
 62
    50
100
AcDbCircle
 10
112.25
 20
118.400216
 30
0.0
 40
1.125
  0
CIRCLE
  5
796
100
AcDbEntity
  8
シンボル
  6
CONTINUOUS
 62
    50
100
AcDbCircle
 10
115.75
 20
118.400216
 30
0.0
 40
1.125
  0
CIRCLE
  5
797
100
AcDbEntity
  8
シンボル
  6
CONTINUOUS
 62
    50
100
AcDbCircle
 10
119.25
 20
118.400216
 30
0.0
 40
1.125
  0
CIRCLE
  5
798
100
AcDbEntity
  8
シンボル
  6
CONTINUOUS
 62
    50
100
AcDbCircle
 10
122.75
 20
118.400216
 30
0.0
 40
1.125
  0
CIRCLE
  5
799
100
AcDbEntity
  8
シンボル
  6
CONTINUOUS
 62
    50
100
AcDbCircle
 10
126.25
 20
118.400216
 30
0.0
 40
1.125
  0
CIRCLE
  5
79A
100
AcDbEntity
  8
シンボル
  6
CONTINUOUS
 62
    50
100
AcDbCircle
 10
129.75
 20
118.400216
 30
0.0
 40
1.125
  0
CIRCLE
  5
79B
100
AcDbEntity
  8
シンボル
  6
CONTINUOUS
 62
    50
100
AcDbCircle
 10
133.25
 20
118.400216
 30
0.0
 40
1.125
  0
CIRCLE
  5
79C
100
AcDbEntity
  8
シンボル
  6
CONTINUOUS
 62
    50
100
AcDbCircle
 10
136.75
 20
118.400216
 30
0.0
 40
1.125
  0
CIRCLE
  5
79D
100
AcDbEntity
  8
シンボル
  6
CONTINUOUS
 62
    50
100
AcDbCircle
 10
140.25
 20
118.400216
 30
0.0
 40
1.125
  0
CIRCLE
  5
79E
100
AcDbEntity
  8
シンボル
  6
CONTINUOUS
 62
    50
100
AcDbCircle
 10
143.75
 20
118.400216
 30
0.0
 40
1.125
  0
CIRCLE
  5
79F
100
AcDbEntity
  8
シンボル
  6
CONTINUOUS
 62
    50
100
AcDbCircle
 10
147.25
 20
118.400216
 30
0.0
 40
1.125
  0
CIRCLE
  5
7A0
100
AcDbEntity
  8
シンボル
  6
CONTINUOUS
 62
    50
100
AcDbCircle
 10
150.75
 20
118.400216
 30
0.0
 40
1.125
  0
CIRCLE
  5
7A1
100
AcDbEntity
  8
シンボル
  6
CONTINUOUS
 62
    50
100
AcDbCircle
 10
164.75
 20
118.400216
 30
0.0
 40
1.125
  0
LINE
  5
7A2
100
AcDbEntity
  8
シンボル
  6
CONTINUOUS
 62
    50
100
AcDbLine
 10
73.000634
 20
150.248744
 30
0.0
 11
73.000588
 21
156.748744
 31
0.0
  0
ARC
  5
7A3
100
AcDbEntity
  8
シンボル
  6
CONTINUOUS
 62
    50
100
AcDbCircle
 10
73.500588
 20
156.748748
 30
0.0
 40
0.5
100
AcDbArc
 50
90.000407
 51
180.000407
  0
ARC
  5
7A4
100
AcDbEntity
  8
シンボル
  6
CONTINUOUS
 62
    50
100
AcDbCircle
 10
73.500634
 20
150.248748
 30
0.0
 40
0.5
100
AcDbArc
 50
180.000407
 51
270.000407
  0
LINE
  5
7A5
100
AcDbEntity
  8
シンボル
  6
CONTINUOUS
 62
    50
100
AcDbLine
 10
162.000634
 20
150.249376
 30
0.0
 11
162.000588
 21
156.749376
 31
0.0
  0
LINE
  5
7A6
100
AcDbEntity
  8
シンボル
  6
CONTINUOUS
 62
    50
100
AcDbLine
 10
161.000634
 20
150.249369
 30
0.0
 11
161.000588
 21
156.749369
 31
0.0
  0
LINE
  5
7A7
100
AcDbEntity
  8
シンボル
  6
CONTINUOUS
 62
    50
100
AcDbLine
 10
160.000634
 20
150.249362
 30
0.0
 11
160.000588
 21
156.749362
 31
0.0
  0
LINE
  5
7A8
100
AcDbEntity
  8
シンボル
  6
CONTINUOUS
 62
    50
100
AcDbLine
 10
159.000634
 20
150.249355
 30
0.0
 11
159.000588
 21
156.749355
 31
0.0
  0
LINE
  5
7A9
100
AcDbEntity
  8
シンボル
  6
CONTINUOUS
 62
    50
100
AcDbLine
 10
158.000634
 20
150.249348
 30
0.0
 11
158.000588
 21
156.749348
 31
0.0
  0
LINE
  5
7AA
100
AcDbEntity
  8
シンボル
  6
CONTINUOUS
 62
    50
100
AcDbLine
 10
157.000634
 20
150.249341
 30
0.0
 11
157.000588
 21
156.749341
 31
0.0
  0
LINE
  5
7AB
100
AcDbEntity
  8
シンボル
  6
CONTINUOUS
 62
    50
100
AcDbLine
 10
156.000634
 20
150.249334
 30
0.0
 11
156.000588
 21
156.749334
 31
0.0
  0
LINE
  5
7AC
100
AcDbEntity
  8
シンボル
  6
CONTINUOUS
 62
    50
100
AcDbLine
 10
155.000634
 20
150.249327
 30
0.0
 11
155.000588
 21
156.749327
 31
0.0
  0
LINE
  5
7AD
100
AcDbEntity
  8
シンボル
  6
CONTINUOUS
 62
    50
100
AcDbLine
 10
154.000634
 20
150.24932
 30
0.0
 11
154.000588
 21
156.74932
 31
0.0
  0
LINE
  5
7AE
100
AcDbEntity
  8
シンボル
  6
CONTINUOUS
 62
    50
100
AcDbLine
 10
153.000634
 20
150.249312
 30
0.0
 11
153.000588
 21
156.749312
 31
0.0
  0
LINE
  5
7AF
100
AcDbEntity
  8
シンボル
  6
CONTINUOUS
 62
    50
100
AcDbLine
 10
151.000634
 20
150.249298
 30
0.0
 11
151.000588
 21
156.749298
 31
0.0
  0
LINE
  5
7B0
100
AcDbEntity
  8
シンボル
  6
CONTINUOUS
 62
    50
100
AcDbLine
 10
152.000634
 20
150.249305
 30
0.0
 11
152.000588
 21
156.749305
 31
0.0
  0
LINE
  5
7B1
100
AcDbEntity
  8
シンボル
  6
CONTINUOUS
 62
    50
100
AcDbLine
 10
149.000634
 20
150.249284
 30
0.0
 11
149.000588
 21
156.749284
 31
0.0
  0
LINE
  5
7B2
100
AcDbEntity
  8
シンボル
  6
CONTINUOUS
 62
    50
100
AcDbLine
 10
150.000634
 20
150.249291
 30
0.0
 11
150.000588
 21
156.749291
 31
0.0
  0
LINE
  5
7B3
100
AcDbEntity
  8
シンボル
  6
CONTINUOUS
 62
    50
100
AcDbLine
 10
147.000634
 20
150.24927
 30
0.0
 11
147.000588
 21
156.74927
 31
0.0
  0
LINE
  5
7B4
100
AcDbEntity
  8
シンボル
  6
CONTINUOUS
 62
    50
100
AcDbLine
 10
148.000634
 20
150.249277
 30
0.0
 11
148.000588
 21
156.749277
 31
0.0
  0
LINE
  5
7B5
100
AcDbEntity
  8
シンボル
  6
CONTINUOUS
 62
    50
100
AcDbLine
 10
145.000634
 20
150.249256
 30
0.0
 11
145.000588
 21
156.749256
 31
0.0
  0
LINE
  5
7B6
100
AcDbEntity
  8
シンボル
  6
CONTINUOUS
 62
    50
100
AcDbLine
 10
146.000634
 20
150.249263
 30
0.0
 11
146.000588
 21
156.749263
 31
0.0
  0
LINE
  5
7B7
100
AcDbEntity
  8
シンボル
  6
CONTINUOUS
 62
    50
100
AcDbLine
 10
143.000634
 20
150.249241
 30
0.0
 11
143.000588
 21
156.749241
 31
0.0
  0
LINE
  5
7B8
100
AcDbEntity
  8
シンボル
  6
CONTINUOUS
 62
    50
100
AcDbLine
 10
144.000634
 20
150.249249
 30
0.0
 11
144.000588
 21
156.749249
 31
0.0
  0
LINE
  5
7B9
100
AcDbEntity
  8
シンボル
  6
CONTINUOUS
 62
    50
100
AcDbLine
 10
141.000634
 20
150.249227
 30
0.0
 11
141.000588
 21
156.749227
 31
0.0
  0
LINE
  5
7BA
100
AcDbEntity
  8
シンボル
  6
CONTINUOUS
 62
    50
100
AcDbLine
 10
142.000634
 20
150.249234
 30
0.0
 11
142.000588
 21
156.749234
 31
0.0
  0
LINE
  5
7BB
100
AcDbEntity
  8
シンボル
  6
CONTINUOUS
 62
    50
100
AcDbLine
 10
139.000634
 20
150.249213
 30
0.0
 11
139.000588
 21
156.749213
 31
0.0
  0
LINE
  5
7BC
100
AcDbEntity
  8
シンボル
  6
CONTINUOUS
 62
    50
100
AcDbLine
 10
140.000634
 20
150.24922
 30
0.0
 11
140.000588
 21
156.74922
 31
0.0
  0
LINE
  5
7BD
100
AcDbEntity
  8
シンボル
  6
CONTINUOUS
 62
    50
100
AcDbLine
 10
137.000634
 20
150.249199
 30
0.0
 11
137.000588
 21
156.749199
 31
0.0
  0
LINE
  5
7BE
100
AcDbEntity
  8
シンボル
  6
CONTINUOUS
 62
    50
100
AcDbLine
 10
138.000634
 20
150.249206
 30
0.0
 11
138.000588
 21
156.749206
 31
0.0
  0
LINE
  5
7BF
100
AcDbEntity
  8
シンボル
  6
CONTINUOUS
 62
    50
100
AcDbLine
 10
135.000634
 20
150.249185
 30
0.0
 11
135.000588
 21
156.749185
 31
0.0
  0
LINE
  5
7C0
100
AcDbEntity
  8
シンボル
  6
CONTINUOUS
 62
    50
100
AcDbLine
 10
136.000634
 20
150.249192
 30
0.0
 11
136.000588
 21
156.749192
 31
0.0
  0
LINE
  5
7C1
100
AcDbEntity
  8
シンボル
  6
CONTINUOUS
 62
    50
100
AcDbLine
 10
133.000634
 20
150.24917
 30
0.0
 11
133.000588
 21
156.74917
 31
0.0
  0
LINE
  5
7C2
100
AcDbEntity
  8
シンボル
  6
CONTINUOUS
 62
    50
100
AcDbLine
 10
134.000634
 20
150.249178
 30
0.0
 11
134.000588
 21
156.749178
 31
0.0
  0
LINE
  5
7C3
100
AcDbEntity
  8
シンボル
  6
CONTINUOUS
 62
    50
100
AcDbLine
 10
131.000634
 20
150.249156
 30
0.0
 11
131.000588
 21
156.749156
 31
0.0
  0
LINE
  5
7C4
100
AcDbEntity
  8
シンボル
  6
CONTINUOUS
 62
    50
100
AcDbLine
 10
132.000634
 20
150.249163
 30
0.0
 11
132.000588
 21
156.749163
 31
0.0
  0
LINE
  5
7C5
100
AcDbEntity
  8
シンボル
  6
CONTINUOUS
 62
    50
100
AcDbLine
 10
129.000634
 20
150.249142
 30
0.0
 11
129.000588
 21
156.749142
 31
0.0
  0
LINE
  5
7C6
100
AcDbEntity
  8
シンボル
  6
CONTINUOUS
 62
    50
100
AcDbLine
 10
130.000634
 20
150.249149
 30
0.0
 11
130.000588
 21
156.749149
 31
0.0
  0
LINE
  5
7C7
100
AcDbEntity
  8
シンボル
  6
CONTINUOUS
 62
    50
100
AcDbLine
 10
127.000634
 20
150.249128
 30
0.0
 11
127.000588
 21
156.749128
 31
0.0
  0
LINE
  5
7C8
100
AcDbEntity
  8
シンボル
  6
CONTINUOUS
 62
    50
100
AcDbLine
 10
128.000634
 20
150.249135
 30
0.0
 11
128.000588
 21
156.749135
 31
0.0
  0
LINE
  5
7C9
100
AcDbEntity
  8
シンボル
  6
CONTINUOUS
 62
    50
100
AcDbLine
 10
125.000634
 20
150.249114
 30
0.0
 11
125.000588
 21
156.749114
 31
0.0
  0
LINE
  5
7CA
100
AcDbEntity
  8
シンボル
  6
CONTINUOUS
 62
    50
100
AcDbLine
 10
126.000634
 20
150.249121
 30
0.0
 11
126.000588
 21
156.749121
 31
0.0
  0
LINE
  5
7CB
100
AcDbEntity
  8
シンボル
  6
CONTINUOUS
 62
    50
100
AcDbLine
 10
123.000634
 20
150.249099
 30
0.0
 11
123.000588
 21
156.749099
 31
0.0
  0
LINE
  5
7CC
100
AcDbEntity
  8
シンボル
  6
CONTINUOUS
 62
    50
100
AcDbLine
 10
124.000634
 20
150.249107
 30
0.0
 11
124.000588
 21
156.749107
 31
0.0
  0
LINE
  5
7CD
100
AcDbEntity
  8
シンボル
  6
CONTINUOUS
 62
    50
100
AcDbLine
 10
121.000634
 20
150.249085
 30
0.0
 11
121.000588
 21
156.749085
 31
0.0
  0
LINE
  5
7CE
100
AcDbEntity
  8
シンボル
  6
CONTINUOUS
 62
    50
100
AcDbLine
 10
122.000634
 20
150.249092
 30
0.0
 11
122.000588
 21
156.749092
 31
0.0
  0
LINE
  5
7CF
100
AcDbEntity
  8
シンボル
  6
CONTINUOUS
 62
    50
100
AcDbLine
 10
119.000634
 20
150.249071
 30
0.0
 11
119.000588
 21
156.749071
 31
0.0
  0
LINE
  5
7D0
100
AcDbEntity
  8
シンボル
  6
CONTINUOUS
 62
    50
100
AcDbLine
 10
120.000634
 20
150.249078
 30
0.0
 11
120.000588
 21
156.749078
 31
0.0
  0
LINE
  5
7D1
100
AcDbEntity
  8
シンボル
  6
CONTINUOUS
 62
    50
100
AcDbLine
 10
117.000634
 20
150.249057
 30
0.0
 11
117.000588
 21
156.749057
 31
0.0
  0
LINE
  5
7D2
100
AcDbEntity
  8
シンボル
  6
CONTINUOUS
 62
    50
100
AcDbLine
 10
118.000634
 20
150.249064
 30
0.0
 11
118.000588
 21
156.749064
 31
0.0
  0
LINE
  5
7D3
100
AcDbEntity
  8
シンボル
  6
CONTINUOUS
 62
    50
100
AcDbLine
 10
115.000634
 20
150.249043
 30
0.0
 11
115.000588
 21
156.749043
 31
0.0
  0
LINE
  5
7D4
100
AcDbEntity
  8
シンボル
  6
CONTINUOUS
 62
    50
100
AcDbLine
 10
116.000634
 20
150.24905
 30
0.0
 11
116.000588
 21
156.74905
 31
0.0
  0
LINE
  5
7D5
100
AcDbEntity
  8
シンボル
  6
CONTINUOUS
 62
    50
100
AcDbLine
 10
113.000634
 20
150.249028
 30
0.0
 11
113.000588
 21
156.749028
 31
0.0
  0
LINE
  5
7D6
100
AcDbEntity
  8
シンボル
  6
CONTINUOUS
 62
    50
100
AcDbLine
 10
114.000634
 20
150.249036
 30
0.0
 11
114.000588
 21
156.749036
 31
0.0
  0
LINE
  5
7D7
100
AcDbEntity
  8
シンボル
  6
CONTINUOUS
 62
    50
100
AcDbLine
 10
111.000634
 20
150.249014
 30
0.0
 11
111.000588
 21
156.749014
 31
0.0
  0
LINE
  5
7D8
100
AcDbEntity
  8
シンボル
  6
CONTINUOUS
 62
    50
100
AcDbLine
 10
112.000634
 20
150.249021
 30
0.0
 11
112.000588
 21
156.749021
 31
0.0
  0
LINE
  5
7D9
100
AcDbEntity
  8
シンボル
  6
CONTINUOUS
 62
    50
100
AcDbLine
 10
109.000634
 20
150.249
 30
0.0
 11
109.000588
 21
156.749
 31
0.0
  0
LINE
  5
7DA
100
AcDbEntity
  8
シンボル
  6
CONTINUOUS
 62
    50
100
AcDbLine
 10
110.000634
 20
150.249007
 30
0.0
 11
110.000588
 21
156.749007
 31
0.0
  0
LINE
  5
7DB
100
AcDbEntity
  8
シンボル
  6
CONTINUOUS
 62
    50
100
AcDbLine
 10
107.000634
 20
150.248986
 30
0.0
 11
107.000588
 21
156.748986
 31
0.0
  0
LINE
  5
7DC
100
AcDbEntity
  8
シンボル
  6
CONTINUOUS
 62
    50
100
AcDbLine
 10
108.000634
 20
150.248993
 30
0.0
 11
108.000588
 21
156.748993
 31
0.0
  0
LINE
  5
7DD
100
AcDbEntity
  8
シンボル
  6
CONTINUOUS
 62
    50
100
AcDbLine
 10
105.000634
 20
150.248972
 30
0.0
 11
105.000588
 21
156.748972
 31
0.0
  0
LINE
  5
7DE
100
AcDbEntity
  8
シンボル
  6
CONTINUOUS
 62
    50
100
AcDbLine
 10
106.000634
 20
150.248979
 30
0.0
 11
106.000588
 21
156.748979
 31
0.0
  0
LINE
  5
7DF
100
AcDbEntity
  8
シンボル
  6
CONTINUOUS
 62
    50
100
AcDbLine
 10
103.000634
 20
150.248957
 30
0.0
 11
103.000588
 21
156.748957
 31
0.0
  0
LINE
  5
7E0
100
AcDbEntity
  8
シンボル
  6
CONTINUOUS
 62
    50
100
AcDbLine
 10
104.000634
 20
150.248964
 30
0.0
 11
104.000588
 21
156.748964
 31
0.0
  0
LINE
  5
7E1
100
AcDbEntity
  8
シンボル
  6
CONTINUOUS
 62
    50
100
AcDbLine
 10
101.000634
 20
150.248943
 30
0.0
 11
101.000588
 21
156.748943
 31
0.0
  0
LINE
  5
7E2
100
AcDbEntity
  8
シンボル
  6
CONTINUOUS
 62
    50
100
AcDbLine
 10
102.000634
 20
150.24895
 30
0.0
 11
102.000588
 21
156.74895
 31
0.0
  0
LINE
  5
7E3
100
AcDbEntity
  8
シンボル
  6
CONTINUOUS
 62
    50
100
AcDbLine
 10
99.000634
 20
150.248929
 30
0.0
 11
99.000588
 21
156.748929
 31
0.0
  0
LINE
  5
7E4
100
AcDbEntity
  8
シンボル
  6
CONTINUOUS
 62
    50
100
AcDbLine
 10
100.000634
 20
150.248936
 30
0.0
 11
100.000588
 21
156.748936
 31
0.0
  0
LINE
  5
7E5
100
AcDbEntity
  8
シンボル
  6
CONTINUOUS
 62
    50
100
AcDbLine
 10
97.000634
 20
150.248915
 30
0.0
 11
97.000588
 21
156.748915
 31
0.0
  0
LINE
  5
7E6
100
AcDbEntity
  8
シンボル
  6
CONTINUOUS
 62
    50
100
AcDbLine
 10
98.000634
 20
150.248922
 30
0.0
 11
98.000588
 21
156.748922
 31
0.0
  0
LINE
  5
7E7
100
AcDbEntity
  8
シンボル
  6
CONTINUOUS
 62
    50
100
AcDbLine
 10
95.000634
 20
150.248901
 30
0.0
 11
95.000588
 21
156.748901
 31
0.0
  0
LINE
  5
7E8
100
AcDbEntity
  8
シンボル
  6
CONTINUOUS
 62
    50
100
AcDbLine
 10
96.000634
 20
150.248908
 30
0.0
 11
96.000588
 21
156.748908
 31
0.0
  0
LINE
  5
7E9
100
AcDbEntity
  8
シンボル
  6
CONTINUOUS
 62
    50
100
AcDbLine
 10
93.000634
 20
150.248886
 30
0.0
 11
93.000588
 21
156.748886
 31
0.0
  0
LINE
  5
7EA
100
AcDbEntity
  8
シンボル
  6
CONTINUOUS
 62
    50
100
AcDbLine
 10
94.000634
 20
150.248893
 30
0.0
 11
94.000588
 21
156.748893
 31
0.0
  0
LINE
  5
7EB
100
AcDbEntity
  8
シンボル
  6
CONTINUOUS
 62
    50
100
AcDbLine
 10
91.000634
 20
150.248872
 30
0.0
 11
91.000588
 21
156.748872
 31
0.0
  0
LINE
  5
7EC
100
AcDbEntity
  8
シンボル
  6
CONTINUOUS
 62
    50
100
AcDbLine
 10
92.000634
 20
150.248879
 30
0.0
 11
92.000588
 21
156.748879
 31
0.0
  0
LINE
  5
7ED
100
AcDbEntity
  8
シンボル
  6
CONTINUOUS
 62
    50
100
AcDbLine
 10
89.000634
 20
150.248858
 30
0.0
 11
89.000588
 21
156.748858
 31
0.0
  0
LINE
  5
7EE
100
AcDbEntity
  8
シンボル
  6
CONTINUOUS
 62
    50
100
AcDbLine
 10
90.000634
 20
150.248865
 30
0.0
 11
90.000588
 21
156.748865
 31
0.0
  0
LINE
  5
7EF
100
AcDbEntity
  8
シンボル
  6
CONTINUOUS
 62
    50
100
AcDbLine
 10
87.000634
 20
150.248844
 30
0.0
 11
87.000588
 21
156.748844
 31
0.0
  0
LINE
  5
7F0
100
AcDbEntity
  8
シンボル
  6
CONTINUOUS
 62
    50
100
AcDbLine
 10
88.000634
 20
150.248851
 30
0.0
 11
88.000588
 21
156.748851
 31
0.0
  0
LINE
  5
7F1
100
AcDbEntity
  8
シンボル
  6
CONTINUOUS
 62
    50
100
AcDbLine
 10
85.000634
 20
150.24883
 30
0.0
 11
85.000588
 21
156.74883
 31
0.0
  0
LINE
  5
7F2
100
AcDbEntity
  8
シンボル
  6
CONTINUOUS
 62
    50
100
AcDbLine
 10
86.000634
 20
150.248837
 30
0.0
 11
86.000588
 21
156.748837
 31
0.0
  0
LINE
  5
7F3
100
AcDbEntity
  8
シンボル
  6
CONTINUOUS
 62
    50
100
AcDbLine
 10
83.000634
 20
150.248815
 30
0.0
 11
83.000588
 21
156.748815
 31
0.0
  0
LINE
  5
7F4
100
AcDbEntity
  8
シンボル
  6
CONTINUOUS
 62
    50
100
AcDbLine
 10
84.000634
 20
150.248822
 30
0.0
 11
84.000588
 21
156.748822
 31
0.0
  0
LINE
  5
7F5
100
AcDbEntity
  8
シンボル
  6
CONTINUOUS
 62
    50
100
AcDbLine
 10
81.000634
 20
150.248801
 30
0.0
 11
81.000588
 21
156.748801
 31
0.0
  0
LINE
  5
7F6
100
AcDbEntity
  8
シンボル
  6
CONTINUOUS
 62
    50
100
AcDbLine
 10
82.000634
 20
150.248808
 30
0.0
 11
82.000588
 21
156.748808
 31
0.0
  0
LINE
  5
7F7
100
AcDbEntity
  8
シンボル
  6
CONTINUOUS
 62
    50
100
AcDbLine
 10
79.000634
 20
150.248787
 30
0.0
 11
79.000588
 21
156.748787
 31
0.0
  0
LINE
  5
7F8
100
AcDbEntity
  8
シンボル
  6
CONTINUOUS
 62
    50
100
AcDbLine
 10
80.000634
 20
150.248794
 30
0.0
 11
80.000588
 21
156.748794
 31
0.0
  0
LINE
  5
7F9
100
AcDbEntity
  8
シンボル
  6
CONTINUOUS
 62
    50
100
AcDbLine
 10
77.000634
 20
150.248773
 30
0.0
 11
77.000588
 21
156.748773
 31
0.0
  0
LINE
  5
7FA
100
AcDbEntity
  8
シンボル
  6
CONTINUOUS
 62
    50
100
AcDbLine
 10
78.000634
 20
150.24878
 30
0.0
 11
78.000588
 21
156.74878
 31
0.0
  0
LINE
  5
7FB
100
AcDbEntity
  8
シンボル
  6
CONTINUOUS
 62
    50
100
AcDbLine
 10
75.000634
 20
150.248759
 30
0.0
 11
75.000588
 21
156.748759
 31
0.0
  0
LINE
  5
7FC
100
AcDbEntity
  8
シンボル
  6
CONTINUOUS
 62
    50
100
AcDbLine
 10
76.000634
 20
150.248766
 30
0.0
 11
76.000588
 21
156.748766
 31
0.0
  0
LINE
  5
7FD
100
AcDbEntity
  8
シンボル
  6
CONTINUOUS
 62
    50
100
AcDbLine
 10
74.000634
 20
150.248751
 30
0.0
 11
74.000588
 21
156.748751
 31
0.0
  0
ARC
  5
7FE
100
AcDbEntity
  8
シンボル
  6
CONTINUOUS
 62
    50
100
AcDbCircle
 10
75.500588
 20
156.748762
 30
0.0
 40
0.5
100
AcDbArc
 50
90.000407
 51
180.000407
  0
ARC
  5
7FF
100
AcDbEntity
  8
シンボル
  6
CONTINUOUS
 62
    50
100
AcDbCircle
 10
75.500588
 20
156.748762
 30
0.0
 40
0.5
100
AcDbArc
 50
0.000407
 51
90.000407
  0
ARC
  5
800
100
AcDbEntity
  8
シンボル
  6
CONTINUOUS
 62
    50
100
AcDbCircle
 10
77.500588
 20
156.748776
 30
0.0
 40
0.5
100
AcDbArc
 50
90.000407
 51
180.000407
  0
ARC
  5
801
100
AcDbEntity
  8
シンボル
  6
CONTINUOUS
 62
    50
100
AcDbCircle
 10
77.500588
 20
156.748776
 30
0.0
 40
0.5
100
AcDbArc
 50
0.000407
 51
90.000407
  0
ARC
  5
802
100
AcDbEntity
  8
シンボル
  6
CONTINUOUS
 62
    50
100
AcDbCircle
 10
79.500588
 20
156.748791
 30
0.0
 40
0.5
100
AcDbArc
 50
90.000407
 51
180.000407
  0
ARC
  5
803
100
AcDbEntity
  8
シンボル
  6
CONTINUOUS
 62
    50
100
AcDbCircle
 10
79.500588
 20
156.748791
 30
0.0
 40
0.5
100
AcDbArc
 50
0.000407
 51
90.000407
  0
ARC
  5
804
100
AcDbEntity
  8
シンボル
  6
CONTINUOUS
 62
    50
100
AcDbCircle
 10
81.500588
 20
156.748805
 30
0.0
 40
0.5
100
AcDbArc
 50
90.000407
 51
180.000407
  0
ARC
  5
805
100
AcDbEntity
  8
シンボル
  6
CONTINUOUS
 62
    50
100
AcDbCircle
 10
81.500588
 20
156.748805
 30
0.0
 40
0.5
100
AcDbArc
 50
0.000407
 51
90.000407
  0
ARC
  5
806
100
AcDbEntity
  8
シンボル
  6
CONTINUOUS
 62
    50
100
AcDbCircle
 10
83.500588
 20
156.748819
 30
0.0
 40
0.5
100
AcDbArc
 50
90.000407
 51
180.000407
  0
ARC
  5
807
100
AcDbEntity
  8
シンボル
  6
CONTINUOUS
 62
    50
100
AcDbCircle
 10
83.500588
 20
156.748819
 30
0.0
 40
0.5
100
AcDbArc
 50
0.000407
 51
90.000407
  0
ARC
  5
808
100
AcDbEntity
  8
シンボル
  6
CONTINUOUS
 62
    50
100
AcDbCircle
 10
85.500588
 20
156.748833
 30
0.0
 40
0.5
100
AcDbArc
 50
90.000407
 51
180.000407
  0
ARC
  5
809
100
AcDbEntity
  8
シンボル
  6
CONTINUOUS
 62
    50
100
AcDbCircle
 10
85.500588
 20
156.748833
 30
0.0
 40
0.5
100
AcDbArc
 50
0.000407
 51
90.000407
  0
ARC
  5
80A
100
AcDbEntity
  8
シンボル
  6
CONTINUOUS
 62
    50
100
AcDbCircle
 10
87.500588
 20
156.748847
 30
0.0
 40
0.5
100
AcDbArc
 50
90.000407
 51
180.000407
  0
ARC
  5
80B
100
AcDbEntity
  8
シンボル
  6
CONTINUOUS
 62
    50
100
AcDbCircle
 10
87.500588
 20
156.748847
 30
0.0
 40
0.5
100
AcDbArc
 50
0.000407
 51
90.000407
  0
ARC
  5
80C
100
AcDbEntity
  8
シンボル
  6
CONTINUOUS
 62
    50
100
AcDbCircle
 10
89.500588
 20
156.748862
 30
0.0
 40
0.5
100
AcDbArc
 50
90.000407
 51
180.000407
  0
ARC
  5
80D
100
AcDbEntity
  8
シンボル
  6
CONTINUOUS
 62
    50
100
AcDbCircle
 10
89.500588
 20
156.748862
 30
0.0
 40
0.5
100
AcDbArc
 50
0.000407
 51
90.000407
  0
ARC
  5
80E
100
AcDbEntity
  8
シンボル
  6
CONTINUOUS
 62
    50
100
AcDbCircle
 10
91.500588
 20
156.748876
 30
0.0
 40
0.5
100
AcDbArc
 50
90.000407
 51
180.000407
  0
ARC
  5
80F
100
AcDbEntity
  8
シンボル
  6
CONTINUOUS
 62
    50
100
AcDbCircle
 10
91.500588
 20
156.748876
 30
0.0
 40
0.5
100
AcDbArc
 50
0.000407
 51
90.000407
  0
ARC
  5
810
100
AcDbEntity
  8
シンボル
  6
CONTINUOUS
 62
    50
100
AcDbCircle
 10
93.500588
 20
156.74889
 30
0.0
 40
0.5
100
AcDbArc
 50
90.000407
 51
180.000407
  0
ARC
  5
811
100
AcDbEntity
  8
シンボル
  6
CONTINUOUS
 62
    50
100
AcDbCircle
 10
93.500588
 20
156.74889
 30
0.0
 40
0.5
100
AcDbArc
 50
0.000407
 51
90.000407
  0
ARC
  5
812
100
AcDbEntity
  8
シンボル
  6
CONTINUOUS
 62
    50
100
AcDbCircle
 10
95.500588
 20
156.748904
 30
0.0
 40
0.5
100
AcDbArc
 50
90.000407
 51
180.000407
  0
ARC
  5
813
100
AcDbEntity
  8
シンボル
  6
CONTINUOUS
 62
    50
100
AcDbCircle
 10
95.500588
 20
156.748904
 30
0.0
 40
0.5
100
AcDbArc
 50
0.000407
 51
90.000407
  0
ARC
  5
814
100
AcDbEntity
  8
シンボル
  6
CONTINUOUS
 62
    50
100
AcDbCircle
 10
97.500588
 20
156.748918
 30
0.0
 40
0.5
100
AcDbArc
 50
90.000407
 51
180.000407
  0
ARC
  5
815
100
AcDbEntity
  8
シンボル
  6
CONTINUOUS
 62
    50
100
AcDbCircle
 10
97.500588
 20
156.748918
 30
0.0
 40
0.5
100
AcDbArc
 50
0.000407
 51
90.000407
  0
ARC
  5
816
100
AcDbEntity
  8
シンボル
  6
CONTINUOUS
 62
    50
100
AcDbCircle
 10
99.500588
 20
156.748933
 30
0.0
 40
0.5
100
AcDbArc
 50
90.000407
 51
180.000407
  0
ARC
  5
817
100
AcDbEntity
  8
シンボル
  6
CONTINUOUS
 62
    50
100
AcDbCircle
 10
99.500588
 20
156.748933
 30
0.0
 40
0.5
100
AcDbArc
 50
0.000407
 51
90.000407
  0
ARC
  5
818
100
AcDbEntity
  8
シンボル
  6
CONTINUOUS
 62
    50
100
AcDbCircle
 10
101.500588
 20
156.748947
 30
0.0
 40
0.5
100
AcDbArc
 50
90.000407
 51
180.000407
  0
ARC
  5
819
100
AcDbEntity
  8
シンボル
  6
CONTINUOUS
 62
    50
100
AcDbCircle
 10
101.500588
 20
156.748947
 30
0.0
 40
0.5
100
AcDbArc
 50
0.000407
 51
90.000407
  0
ARC
  5
81A
100
AcDbEntity
  8
シンボル
  6
CONTINUOUS
 62
    50
100
AcDbCircle
 10
103.500588
 20
156.748961
 30
0.0
 40
0.5
100
AcDbArc
 50
90.000407
 51
180.000407
  0
ARC
  5
81B
100
AcDbEntity
  8
シンボル
  6
CONTINUOUS
 62
    50
100
AcDbCircle
 10
103.500588
 20
156.748961
 30
0.0
 40
0.5
100
AcDbArc
 50
0.000407
 51
90.000407
  0
ARC
  5
81C
100
AcDbEntity
  8
シンボル
  6
CONTINUOUS
 62
    50
100
AcDbCircle
 10
105.500588
 20
156.748975
 30
0.0
 40
0.5
100
AcDbArc
 50
90.000407
 51
180.000407
  0
ARC
  5
81D
100
AcDbEntity
  8
シンボル
  6
CONTINUOUS
 62
    50
100
AcDbCircle
 10
105.500588
 20
156.748975
 30
0.0
 40
0.5
100
AcDbArc
 50
0.000407
 51
90.000407
  0
ARC
  5
81E
100
AcDbEntity
  8
シンボル
  6
CONTINUOUS
 62
    50
100
AcDbCircle
 10
107.500588
 20
156.748989
 30
0.0
 40
0.5
100
AcDbArc
 50
90.000407
 51
180.000407
  0
ARC
  5
81F
100
AcDbEntity
  8
シンボル
  6
CONTINUOUS
 62
    50
100
AcDbCircle
 10
107.500588
 20
156.748989
 30
0.0
 40
0.5
100
AcDbArc
 50
0.000407
 51
90.000407
  0
ARC
  5
820
100
AcDbEntity
  8
シンボル
  6
CONTINUOUS
 62
    50
100
AcDbCircle
 10
109.500588
 20
156.749004
 30
0.0
 40
0.5
100
AcDbArc
 50
90.000407
 51
180.000407
  0
ARC
  5
821
100
AcDbEntity
  8
シンボル
  6
CONTINUOUS
 62
    50
100
AcDbCircle
 10
109.500588
 20
156.749004
 30
0.0
 40
0.5
100
AcDbArc
 50
0.000407
 51
90.000407
  0
ARC
  5
822
100
AcDbEntity
  8
シンボル
  6
CONTINUOUS
 62
    50
100
AcDbCircle
 10
111.500588
 20
156.749018
 30
0.0
 40
0.5
100
AcDbArc
 50
90.000407
 51
180.000407
  0
ARC
  5
823
100
AcDbEntity
  8
シンボル
  6
CONTINUOUS
 62
    50
100
AcDbCircle
 10
111.500588
 20
156.749018
 30
0.0
 40
0.5
100
AcDbArc
 50
0.000407
 51
90.000407
  0
ARC
  5
824
100
AcDbEntity
  8
シンボル
  6
CONTINUOUS
 62
    50
100
AcDbCircle
 10
113.500588
 20
156.749032
 30
0.0
 40
0.5
100
AcDbArc
 50
90.000407
 51
180.000407
  0
ARC
  5
825
100
AcDbEntity
  8
シンボル
  6
CONTINUOUS
 62
    50
100
AcDbCircle
 10
113.500588
 20
156.749032
 30
0.0
 40
0.5
100
AcDbArc
 50
0.000407
 51
90.000407
  0
ARC
  5
826
100
AcDbEntity
  8
シンボル
  6
CONTINUOUS
 62
    50
100
AcDbCircle
 10
115.500588
 20
156.749046
 30
0.0
 40
0.5
100
AcDbArc
 50
90.000407
 51
180.000407
  0
ARC
  5
827
100
AcDbEntity
  8
シンボル
  6
CONTINUOUS
 62
    50
100
AcDbCircle
 10
115.500588
 20
156.749046
 30
0.0
 40
0.5
100
AcDbArc
 50
0.000407
 51
90.000407
  0
ARC
  5
828
100
AcDbEntity
  8
シンボル
  6
CONTINUOUS
 62
    50
100
AcDbCircle
 10
117.500588
 20
156.74906
 30
0.0
 40
0.5
100
AcDbArc
 50
90.000407
 51
180.000407
  0
ARC
  5
829
100
AcDbEntity
  8
シンボル
  6
CONTINUOUS
 62
    50
100
AcDbCircle
 10
117.500588
 20
156.74906
 30
0.0
 40
0.5
100
AcDbArc
 50
0.000407
 51
90.000407
  0
ARC
  5
82A
100
AcDbEntity
  8
シンボル
  6
CONTINUOUS
 62
    50
100
AcDbCircle
 10
119.500588
 20
156.749075
 30
0.0
 40
0.5
100
AcDbArc
 50
90.000407
 51
180.000407
  0
ARC
  5
82B
100
AcDbEntity
  8
シンボル
  6
CONTINUOUS
 62
    50
100
AcDbCircle
 10
119.500588
 20
156.749075
 30
0.0
 40
0.5
100
AcDbArc
 50
0.000407
 51
90.000407
  0
ARC
  5
82C
100
AcDbEntity
  8
シンボル
  6
CONTINUOUS
 62
    50
100
AcDbCircle
 10
121.500588
 20
156.749089
 30
0.0
 40
0.5
100
AcDbArc
 50
90.000407
 51
180.000407
  0
ARC
  5
82D
100
AcDbEntity
  8
シンボル
  6
CONTINUOUS
 62
    50
100
AcDbCircle
 10
121.500588
 20
156.749089
 30
0.0
 40
0.5
100
AcDbArc
 50
0.000407
 51
90.000407
  0
ARC
  5
82E
100
AcDbEntity
  8
シンボル
  6
CONTINUOUS
 62
    50
100
AcDbCircle
 10
123.500588
 20
156.749103
 30
0.0
 40
0.5
100
AcDbArc
 50
90.000407
 51
180.000407
  0
ARC
  5
82F
100
AcDbEntity
  8
シンボル
  6
CONTINUOUS
 62
    50
100
AcDbCircle
 10
123.500588
 20
156.749103
 30
0.0
 40
0.5
100
AcDbArc
 50
0.000407
 51
90.000407
  0
ARC
  5
830
100
AcDbEntity
  8
シンボル
  6
CONTINUOUS
 62
    50
100
AcDbCircle
 10
125.500588
 20
156.749117
 30
0.0
 40
0.5
100
AcDbArc
 50
90.000407
 51
180.000407
  0
ARC
  5
831
100
AcDbEntity
  8
シンボル
  6
CONTINUOUS
 62
    50
100
AcDbCircle
 10
125.500588
 20
156.749117
 30
0.0
 40
0.5
100
AcDbArc
 50
0.000407
 51
90.000407
  0
ARC
  5
832
100
AcDbEntity
  8
シンボル
  6
CONTINUOUS
 62
    50
100
AcDbCircle
 10
127.500588
 20
156.749131
 30
0.0
 40
0.5
100
AcDbArc
 50
90.000407
 51
180.000407
  0
ARC
  5
833
100
AcDbEntity
  8
シンボル
  6
CONTINUOUS
 62
    50
100
AcDbCircle
 10
127.500588
 20
156.749131
 30
0.0
 40
0.5
100
AcDbArc
 50
0.000407
 51
90.000407
  0
ARC
  5
834
100
AcDbEntity
  8
シンボル
  6
CONTINUOUS
 62
    50
100
AcDbCircle
 10
129.500588
 20
156.749146
 30
0.0
 40
0.5
100
AcDbArc
 50
90.000407
 51
180.000407
  0
ARC
  5
835
100
AcDbEntity
  8
シンボル
  6
CONTINUOUS
 62
    50
100
AcDbCircle
 10
129.500588
 20
156.749146
 30
0.0
 40
0.5
100
AcDbArc
 50
0.000407
 51
90.000407
  0
ARC
  5
836
100
AcDbEntity
  8
シンボル
  6
CONTINUOUS
 62
    50
100
AcDbCircle
 10
131.500588
 20
156.74916
 30
0.0
 40
0.5
100
AcDbArc
 50
90.000407
 51
180.000407
  0
ARC
  5
837
100
AcDbEntity
  8
シンボル
  6
CONTINUOUS
 62
    50
100
AcDbCircle
 10
131.500588
 20
156.74916
 30
0.0
 40
0.5
100
AcDbArc
 50
0.000407
 51
90.000407
  0
ARC
  5
838
100
AcDbEntity
  8
シンボル
  6
CONTINUOUS
 62
    50
100
AcDbCircle
 10
133.500588
 20
156.749174
 30
0.0
 40
0.5
100
AcDbArc
 50
90.000407
 51
180.000407
  0
ARC
  5
839
100
AcDbEntity
  8
シンボル
  6
CONTINUOUS
 62
    50
100
AcDbCircle
 10
133.500588
 20
156.749174
 30
0.0
 40
0.5
100
AcDbArc
 50
0.000407
 51
90.000407
  0
ARC
  5
83A
100
AcDbEntity
  8
シンボル
  6
CONTINUOUS
 62
    50
100
AcDbCircle
 10
135.500588
 20
156.749188
 30
0.0
 40
0.5
100
AcDbArc
 50
90.000407
 51
180.000407
  0
ARC
  5
83B
100
AcDbEntity
  8
シンボル
  6
CONTINUOUS
 62
    50
100
AcDbCircle
 10
135.500588
 20
156.749188
 30
0.0
 40
0.5
100
AcDbArc
 50
0.000407
 51
90.000407
  0
ARC
  5
83C
100
AcDbEntity
  8
シンボル
  6
CONTINUOUS
 62
    50
100
AcDbCircle
 10
137.500588
 20
156.749202
 30
0.0
 40
0.5
100
AcDbArc
 50
90.000407
 51
180.000407
  0
ARC
  5
83D
100
AcDbEntity
  8
シンボル
  6
CONTINUOUS
 62
    50
100
AcDbCircle
 10
137.500588
 20
156.749202
 30
0.0
 40
0.5
100
AcDbArc
 50
0.000407
 51
90.000407
  0
ARC
  5
83E
100
AcDbEntity
  8
シンボル
  6
CONTINUOUS
 62
    50
100
AcDbCircle
 10
139.500588
 20
156.749217
 30
0.0
 40
0.5
100
AcDbArc
 50
90.000407
 51
180.000407
  0
ARC
  5
83F
100
AcDbEntity
  8
シンボル
  6
CONTINUOUS
 62
    50
100
AcDbCircle
 10
139.500588
 20
156.749217
 30
0.0
 40
0.5
100
AcDbArc
 50
0.000407
 51
90.000407
  0
ARC
  5
840
100
AcDbEntity
  8
シンボル
  6
CONTINUOUS
 62
    50
100
AcDbCircle
 10
141.500588
 20
156.749231
 30
0.0
 40
0.5
100
AcDbArc
 50
90.000407
 51
180.000407
  0
ARC
  5
841
100
AcDbEntity
  8
シンボル
  6
CONTINUOUS
 62
    50
100
AcDbCircle
 10
141.500588
 20
156.749231
 30
0.0
 40
0.5
100
AcDbArc
 50
0.000407
 51
90.000407
  0
ARC
  5
842
100
AcDbEntity
  8
シンボル
  6
CONTINUOUS
 62
    50
100
AcDbCircle
 10
143.500588
 20
156.749245
 30
0.0
 40
0.5
100
AcDbArc
 50
90.000407
 51
180.000407
  0
ARC
  5
843
100
AcDbEntity
  8
シンボル
  6
CONTINUOUS
 62
    50
100
AcDbCircle
 10
143.500588
 20
156.749245
 30
0.0
 40
0.5
100
AcDbArc
 50
0.000407
 51
90.000407
  0
ARC
  5
844
100
AcDbEntity
  8
シンボル
  6
CONTINUOUS
 62
    50
100
AcDbCircle
 10
145.500588
 20
156.749259
 30
0.0
 40
0.5
100
AcDbArc
 50
90.000407
 51
180.000407
  0
ARC
  5
845
100
AcDbEntity
  8
シンボル
  6
CONTINUOUS
 62
    50
100
AcDbCircle
 10
145.500588
 20
156.749259
 30
0.0
 40
0.5
100
AcDbArc
 50
0.000407
 51
90.000407
  0
ARC
  5
846
100
AcDbEntity
  8
シンボル
  6
CONTINUOUS
 62
    50
100
AcDbCircle
 10
147.500588
 20
156.749273
 30
0.0
 40
0.5
100
AcDbArc
 50
90.000407
 51
180.000407
  0
ARC
  5
847
100
AcDbEntity
  8
シンボル
  6
CONTINUOUS
 62
    50
100
AcDbCircle
 10
147.500588
 20
156.749273
 30
0.0
 40
0.5
100
AcDbArc
 50
0.000407
 51
90.000407
  0
ARC
  5
848
100
AcDbEntity
  8
シンボル
  6
CONTINUOUS
 62
    50
100
AcDbCircle
 10
149.500588
 20
156.749288
 30
0.0
 40
0.5
100
AcDbArc
 50
90.000407
 51
180.000407
  0
ARC
  5
849
100
AcDbEntity
  8
シンボル
  6
CONTINUOUS
 62
    50
100
AcDbCircle
 10
149.500588
 20
156.749288
 30
0.0
 40
0.5
100
AcDbArc
 50
0.000407
 51
90.000407
  0
ARC
  5
84A
100
AcDbEntity
  8
シンボル
  6
CONTINUOUS
 62
    50
100
AcDbCircle
 10
151.500588
 20
156.749302
 30
0.0
 40
0.5
100
AcDbArc
 50
90.000407
 51
180.000407
  0
ARC
  5
84B
100
AcDbEntity
  8
シンボル
  6
CONTINUOUS
 62
    50
100
AcDbCircle
 10
151.500588
 20
156.749302
 30
0.0
 40
0.5
100
AcDbArc
 50
0.000407
 51
90.000407
  0
ARC
  5
84C
100
AcDbEntity
  8
シンボル
  6
CONTINUOUS
 62
    50
100
AcDbCircle
 10
153.500588
 20
156.749316
 30
0.0
 40
0.5
100
AcDbArc
 50
0.000407
 51
90.000407
  0
ARC
  5
84D
100
AcDbEntity
  8
シンボル
  6
CONTINUOUS
 62
    50
100
AcDbCircle
 10
153.500588
 20
156.749316
 30
0.0
 40
0.5
100
AcDbArc
 50
90.000407
 51
180.000407
  0
ARC
  5
84E
100
AcDbEntity
  8
シンボル
  6
CONTINUOUS
 62
    50
100
AcDbCircle
 10
155.500588
 20
156.74933
 30
0.0
 40
0.5
100
AcDbArc
 50
0.000407
 51
90.000407
  0
ARC
  5
84F
100
AcDbEntity
  8
シンボル
  6
CONTINUOUS
 62
    50
100
AcDbCircle
 10
155.500588
 20
156.74933
 30
0.0
 40
0.5
100
AcDbArc
 50
90.000407
 51
180.000407
  0
ARC
  5
850
100
AcDbEntity
  8
シンボル
  6
CONTINUOUS
 62
    50
100
AcDbCircle
 10
157.500588
 20
156.749344
 30
0.0
 40
0.5
100
AcDbArc
 50
0.000407
 51
90.000407
  0
ARC
  5
851
100
AcDbEntity
  8
シンボル
  6
CONTINUOUS
 62
    50
100
AcDbCircle
 10
157.500588
 20
156.749344
 30
0.0
 40
0.5
100
AcDbArc
 50
90.000407
 51
180.000407
  0
ARC
  5
852
100
AcDbEntity
  8
シンボル
  6
CONTINUOUS
 62
    50
100
AcDbCircle
 10
159.500588
 20
156.749359
 30
0.0
 40
0.5
100
AcDbArc
 50
0.000407
 51
90.000407
  0
ARC
  5
853
100
AcDbEntity
  8
シンボル
  6
CONTINUOUS
 62
    50
100
AcDbCircle
 10
159.500588
 20
156.749359
 30
0.0
 40
0.5
100
AcDbArc
 50
90.000407
 51
180.000407
  0
ARC
  5
854
100
AcDbEntity
  8
シンボル
  6
CONTINUOUS
 62
    50
100
AcDbCircle
 10
161.500588
 20
156.749373
 30
0.0
 40
0.5
100
AcDbArc
 50
0.000407
 51
90.000407
  0
ARC
  5
855
100
AcDbEntity
  8
シンボル
  6
CONTINUOUS
 62
    50
100
AcDbCircle
 10
161.500588
 20
156.749373
 30
0.0
 40
0.5
100
AcDbArc
 50
90.000407
 51
180.000407
  0
ARC
  5
856
100
AcDbEntity
  8
シンボル
  6
CONTINUOUS
 62
    50
100
AcDbCircle
 10
75.500634
 20
150.248762
 30
0.0
 40
0.5
100
AcDbArc
 50
180.000407
 51
270.000407
  0
ARC
  5
857
100
AcDbEntity
  8
シンボル
  6
CONTINUOUS
 62
    50
100
AcDbCircle
 10
75.500634
 20
150.248762
 30
0.0
 40
0.5
100
AcDbArc
 50
270.000407
 51
0.000407
  0
ARC
  5
858
100
AcDbEntity
  8
シンボル
  6
CONTINUOUS
 62
    50
100
AcDbCircle
 10
77.500634
 20
150.248776
 30
0.0
 40
0.5
100
AcDbArc
 50
180.000407
 51
270.000407
  0
ARC
  5
859
100
AcDbEntity
  8
シンボル
  6
CONTINUOUS
 62
    50
100
AcDbCircle
 10
77.500634
 20
150.248776
 30
0.0
 40
0.5
100
AcDbArc
 50
270.000407
 51
0.000407
  0
ARC
  5
85A
100
AcDbEntity
  8
シンボル
  6
CONTINUOUS
 62
    50
100
AcDbCircle
 10
79.500634
 20
150.248791
 30
0.0
 40
0.5
100
AcDbArc
 50
180.000407
 51
270.000407
  0
ARC
  5
85B
100
AcDbEntity
  8
シンボル
  6
CONTINUOUS
 62
    50
100
AcDbCircle
 10
79.500634
 20
150.248791
 30
0.0
 40
0.5
100
AcDbArc
 50
270.000407
 51
0.000407
  0
ARC
  5
85C
100
AcDbEntity
  8
シンボル
  6
CONTINUOUS
 62
    50
100
AcDbCircle
 10
81.500634
 20
150.248805
 30
0.0
 40
0.5
100
AcDbArc
 50
180.000407
 51
270.000407
  0
ARC
  5
85D
100
AcDbEntity
  8
シンボル
  6
CONTINUOUS
 62
    50
100
AcDbCircle
 10
81.500634
 20
150.248805
 30
0.0
 40
0.5
100
AcDbArc
 50
270.000407
 51
0.000407
  0
ARC
  5
85E
100
AcDbEntity
  8
シンボル
  6
CONTINUOUS
 62
    50
100
AcDbCircle
 10
83.500634
 20
150.248819
 30
0.0
 40
0.5
100
AcDbArc
 50
180.000407
 51
270.000407
  0
ARC
  5
85F
100
AcDbEntity
  8
シンボル
  6
CONTINUOUS
 62
    50
100
AcDbCircle
 10
83.500634
 20
150.248819
 30
0.0
 40
0.5
100
AcDbArc
 50
270.000407
 51
0.000407
  0
ARC
  5
860
100
AcDbEntity
  8
シンボル
  6
CONTINUOUS
 62
    50
100
AcDbCircle
 10
85.500634
 20
150.248833
 30
0.0
 40
0.5
100
AcDbArc
 50
180.000407
 51
270.000407
  0
ARC
  5
861
100
AcDbEntity
  8
シンボル
  6
CONTINUOUS
 62
    50
100
AcDbCircle
 10
85.500634
 20
150.248833
 30
0.0
 40
0.5
100
AcDbArc
 50
270.000407
 51
0.000407
  0
ARC
  5
862
100
AcDbEntity
  8
シンボル
  6
CONTINUOUS
 62
    50
100
AcDbCircle
 10
87.500634
 20
150.248847
 30
0.0
 40
0.5
100
AcDbArc
 50
180.000407
 51
270.000407
  0
ARC
  5
863
100
AcDbEntity
  8
シンボル
  6
CONTINUOUS
 62
    50
100
AcDbCircle
 10
87.500634
 20
150.248847
 30
0.0
 40
0.5
100
AcDbArc
 50
270.000407
 51
0.000407
  0
ARC
  5
864
100
AcDbEntity
  8
シンボル
  6
CONTINUOUS
 62
    50
100
AcDbCircle
 10
89.500634
 20
150.248862
 30
0.0
 40
0.5
100
AcDbArc
 50
180.000407
 51
270.000407
  0
ARC
  5
865
100
AcDbEntity
  8
シンボル
  6
CONTINUOUS
 62
    50
100
AcDbCircle
 10
89.500634
 20
150.248862
 30
0.0
 40
0.5
100
AcDbArc
 50
270.000407
 51
0.000407
  0
ARC
  5
866
100
AcDbEntity
  8
シンボル
  6
CONTINUOUS
 62
    50
100
AcDbCircle
 10
91.500634
 20
150.248876
 30
0.0
 40
0.5
100
AcDbArc
 50
180.000407
 51
270.000407
  0
ARC
  5
867
100
AcDbEntity
  8
シンボル
  6
CONTINUOUS
 62
    50
100
AcDbCircle
 10
91.500634
 20
150.248876
 30
0.0
 40
0.5
100
AcDbArc
 50
270.000407
 51
0.000407
  0
ARC
  5
868
100
AcDbEntity
  8
シンボル
  6
CONTINUOUS
 62
    50
100
AcDbCircle
 10
93.500634
 20
150.24889
 30
0.0
 40
0.5
100
AcDbArc
 50
180.000407
 51
270.000407
  0
ARC
  5
869
100
AcDbEntity
  8
シンボル
  6
CONTINUOUS
 62
    50
100
AcDbCircle
 10
93.500634
 20
150.24889
 30
0.0
 40
0.5
100
AcDbArc
 50
270.000407
 51
0.000407
  0
ARC
  5
86A
100
AcDbEntity
  8
シンボル
  6
CONTINUOUS
 62
    50
100
AcDbCircle
 10
95.500634
 20
150.248904
 30
0.0
 40
0.5
100
AcDbArc
 50
180.000407
 51
270.000407
  0
ARC
  5
86B
100
AcDbEntity
  8
シンボル
  6
CONTINUOUS
 62
    50
100
AcDbCircle
 10
95.500634
 20
150.248904
 30
0.0
 40
0.5
100
AcDbArc
 50
270.000407
 51
0.000407
  0
ARC
  5
86C
100
AcDbEntity
  8
シンボル
  6
CONTINUOUS
 62
    50
100
AcDbCircle
 10
97.500634
 20
150.248918
 30
0.0
 40
0.5
100
AcDbArc
 50
180.000407
 51
270.000407
  0
ARC
  5
86D
100
AcDbEntity
  8
シンボル
  6
CONTINUOUS
 62
    50
100
AcDbCircle
 10
97.500634
 20
150.248918
 30
0.0
 40
0.5
100
AcDbArc
 50
270.000407
 51
0.000407
  0
ARC
  5
86E
100
AcDbEntity
  8
シンボル
  6
CONTINUOUS
 62
    50
100
AcDbCircle
 10
99.500634
 20
150.248933
 30
0.0
 40
0.5
100
AcDbArc
 50
180.000407
 51
270.000407
  0
ARC
  5
86F
100
AcDbEntity
  8
シンボル
  6
CONTINUOUS
 62
    50
100
AcDbCircle
 10
99.500634
 20
150.248933
 30
0.0
 40
0.5
100
AcDbArc
 50
270.000407
 51
0.000407
  0
ARC
  5
870
100
AcDbEntity
  8
シンボル
  6
CONTINUOUS
 62
    50
100
AcDbCircle
 10
101.500634
 20
150.248947
 30
0.0
 40
0.5
100
AcDbArc
 50
180.000407
 51
270.000407
  0
ARC
  5
871
100
AcDbEntity
  8
シンボル
  6
CONTINUOUS
 62
    50
100
AcDbCircle
 10
101.500634
 20
150.248947
 30
0.0
 40
0.5
100
AcDbArc
 50
270.000407
 51
0.000407
  0
ARC
  5
872
100
AcDbEntity
  8
シンボル
  6
CONTINUOUS
 62
    50
100
AcDbCircle
 10
103.500634
 20
150.248961
 30
0.0
 40
0.5
100
AcDbArc
 50
180.000407
 51
270.000407
  0
ARC
  5
873
100
AcDbEntity
  8
シンボル
  6
CONTINUOUS
 62
    50
100
AcDbCircle
 10
103.500634
 20
150.248961
 30
0.0
 40
0.5
100
AcDbArc
 50
270.000407
 51
0.000407
  0
ARC
  5
874
100
AcDbEntity
  8
シンボル
  6
CONTINUOUS
 62
    50
100
AcDbCircle
 10
105.500634
 20
150.248975
 30
0.0
 40
0.5
100
AcDbArc
 50
180.000407
 51
270.000407
  0
ARC
  5
875
100
AcDbEntity
  8
シンボル
  6
CONTINUOUS
 62
    50
100
AcDbCircle
 10
105.500634
 20
150.248975
 30
0.0
 40
0.5
100
AcDbArc
 50
270.000407
 51
0.000407
  0
ARC
  5
876
100
AcDbEntity
  8
シンボル
  6
CONTINUOUS
 62
    50
100
AcDbCircle
 10
107.500634
 20
150.248989
 30
0.0
 40
0.5
100
AcDbArc
 50
180.000407
 51
270.000407
  0
ARC
  5
877
100
AcDbEntity
  8
シンボル
  6
CONTINUOUS
 62
    50
100
AcDbCircle
 10
107.500634
 20
150.248989
 30
0.0
 40
0.5
100
AcDbArc
 50
270.000407
 51
0.000407
  0
ARC
  5
878
100
AcDbEntity
  8
シンボル
  6
CONTINUOUS
 62
    50
100
AcDbCircle
 10
109.500634
 20
150.249004
 30
0.0
 40
0.5
100
AcDbArc
 50
180.000407
 51
270.000407
  0
ARC
  5
879
100
AcDbEntity
  8
シンボル
  6
CONTINUOUS
 62
    50
100
AcDbCircle
 10
109.500634
 20
150.249004
 30
0.0
 40
0.5
100
AcDbArc
 50
270.000407
 51
0.000407
  0
ARC
  5
87A
100
AcDbEntity
  8
シンボル
  6
CONTINUOUS
 62
    50
100
AcDbCircle
 10
111.500634
 20
150.249018
 30
0.0
 40
0.5
100
AcDbArc
 50
180.000407
 51
270.000407
  0
ARC
  5
87B
100
AcDbEntity
  8
シンボル
  6
CONTINUOUS
 62
    50
100
AcDbCircle
 10
111.500634
 20
150.249018
 30
0.0
 40
0.5
100
AcDbArc
 50
270.000407
 51
0.000407
  0
ARC
  5
87C
100
AcDbEntity
  8
シンボル
  6
CONTINUOUS
 62
    50
100
AcDbCircle
 10
113.500634
 20
150.249032
 30
0.0
 40
0.5
100
AcDbArc
 50
180.000407
 51
270.000407
  0
ARC
  5
87D
100
AcDbEntity
  8
シンボル
  6
CONTINUOUS
 62
    50
100
AcDbCircle
 10
113.500634
 20
150.249032
 30
0.0
 40
0.5
100
AcDbArc
 50
270.000407
 51
0.000407
  0
ARC
  5
87E
100
AcDbEntity
  8
シンボル
  6
CONTINUOUS
 62
    50
100
AcDbCircle
 10
115.500634
 20
150.249046
 30
0.0
 40
0.5
100
AcDbArc
 50
180.000407
 51
270.000407
  0
ARC
  5
87F
100
AcDbEntity
  8
シンボル
  6
CONTINUOUS
 62
    50
100
AcDbCircle
 10
115.500634
 20
150.249046
 30
0.0
 40
0.5
100
AcDbArc
 50
270.000407
 51
0.000407
  0
ARC
  5
880
100
AcDbEntity
  8
シンボル
  6
CONTINUOUS
 62
    50
100
AcDbCircle
 10
117.500634
 20
150.24906
 30
0.0
 40
0.5
100
AcDbArc
 50
180.000407
 51
270.000407
  0
ARC
  5
881
100
AcDbEntity
  8
シンボル
  6
CONTINUOUS
 62
    50
100
AcDbCircle
 10
117.500634
 20
150.24906
 30
0.0
 40
0.5
100
AcDbArc
 50
270.000407
 51
0.000407
  0
ARC
  5
882
100
AcDbEntity
  8
シンボル
  6
CONTINUOUS
 62
    50
100
AcDbCircle
 10
119.500634
 20
150.249075
 30
0.0
 40
0.5
100
AcDbArc
 50
180.000407
 51
270.000407
  0
ARC
  5
883
100
AcDbEntity
  8
シンボル
  6
CONTINUOUS
 62
    50
100
AcDbCircle
 10
119.500634
 20
150.249075
 30
0.0
 40
0.5
100
AcDbArc
 50
270.000407
 51
0.000407
  0
ARC
  5
884
100
AcDbEntity
  8
シンボル
  6
CONTINUOUS
 62
    50
100
AcDbCircle
 10
121.500634
 20
150.249089
 30
0.0
 40
0.5
100
AcDbArc
 50
180.000407
 51
270.000407
  0
ARC
  5
885
100
AcDbEntity
  8
シンボル
  6
CONTINUOUS
 62
    50
100
AcDbCircle
 10
121.500634
 20
150.249089
 30
0.0
 40
0.5
100
AcDbArc
 50
270.000407
 51
0.000407
  0
ARC
  5
886
100
AcDbEntity
  8
シンボル
  6
CONTINUOUS
 62
    50
100
AcDbCircle
 10
123.500634
 20
150.249103
 30
0.0
 40
0.5
100
AcDbArc
 50
180.000407
 51
270.000407
  0
ARC
  5
887
100
AcDbEntity
  8
シンボル
  6
CONTINUOUS
 62
    50
100
AcDbCircle
 10
123.500634
 20
150.249103
 30
0.0
 40
0.5
100
AcDbArc
 50
270.000407
 51
0.000407
  0
ARC
  5
888
100
AcDbEntity
  8
シンボル
  6
CONTINUOUS
 62
    50
100
AcDbCircle
 10
125.500634
 20
150.249117
 30
0.0
 40
0.5
100
AcDbArc
 50
180.000407
 51
270.000407
  0
ARC
  5
889
100
AcDbEntity
  8
シンボル
  6
CONTINUOUS
 62
    50
100
AcDbCircle
 10
125.500634
 20
150.249117
 30
0.0
 40
0.5
100
AcDbArc
 50
270.000407
 51
0.000407
  0
ARC
  5
88A
100
AcDbEntity
  8
シンボル
  6
CONTINUOUS
 62
    50
100
AcDbCircle
 10
127.500634
 20
150.249131
 30
0.0
 40
0.5
100
AcDbArc
 50
180.000407
 51
270.000407
  0
ARC
  5
88B
100
AcDbEntity
  8
シンボル
  6
CONTINUOUS
 62
    50
100
AcDbCircle
 10
127.500634
 20
150.249131
 30
0.0
 40
0.5
100
AcDbArc
 50
270.000407
 51
0.000407
  0
ARC
  5
88C
100
AcDbEntity
  8
シンボル
  6
CONTINUOUS
 62
    50
100
AcDbCircle
 10
129.500634
 20
150.249146
 30
0.0
 40
0.5
100
AcDbArc
 50
180.000407
 51
270.000407
  0
ARC
  5
88D
100
AcDbEntity
  8
シンボル
  6
CONTINUOUS
 62
    50
100
AcDbCircle
 10
129.500634
 20
150.249146
 30
0.0
 40
0.5
100
AcDbArc
 50
270.000407
 51
0.000407
  0
ARC
  5
88E
100
AcDbEntity
  8
シンボル
  6
CONTINUOUS
 62
    50
100
AcDbCircle
 10
131.500634
 20
150.24916
 30
0.0
 40
0.5
100
AcDbArc
 50
180.000407
 51
270.000407
  0
ARC
  5
88F
100
AcDbEntity
  8
シンボル
  6
CONTINUOUS
 62
    50
100
AcDbCircle
 10
131.500634
 20
150.24916
 30
0.0
 40
0.5
100
AcDbArc
 50
270.000407
 51
0.000407
  0
ARC
  5
890
100
AcDbEntity
  8
シンボル
  6
CONTINUOUS
 62
    50
100
AcDbCircle
 10
133.500634
 20
150.249174
 30
0.0
 40
0.5
100
AcDbArc
 50
180.000407
 51
270.000407
  0
ARC
  5
891
100
AcDbEntity
  8
シンボル
  6
CONTINUOUS
 62
    50
100
AcDbCircle
 10
133.500634
 20
150.249174
 30
0.0
 40
0.5
100
AcDbArc
 50
270.000407
 51
0.000407
  0
ARC
  5
892
100
AcDbEntity
  8
シンボル
  6
CONTINUOUS
 62
    50
100
AcDbCircle
 10
135.500634
 20
150.249188
 30
0.0
 40
0.5
100
AcDbArc
 50
180.000407
 51
270.000407
  0
ARC
  5
893
100
AcDbEntity
  8
シンボル
  6
CONTINUOUS
 62
    50
100
AcDbCircle
 10
135.500634
 20
150.249188
 30
0.0
 40
0.5
100
AcDbArc
 50
270.000407
 51
0.000407
  0
ARC
  5
894
100
AcDbEntity
  8
シンボル
  6
CONTINUOUS
 62
    50
100
AcDbCircle
 10
137.500634
 20
150.249202
 30
0.0
 40
0.5
100
AcDbArc
 50
180.000407
 51
270.000407
  0
ARC
  5
895
100
AcDbEntity
  8
シンボル
  6
CONTINUOUS
 62
    50
100
AcDbCircle
 10
137.500634
 20
150.249202
 30
0.0
 40
0.5
100
AcDbArc
 50
270.000407
 51
0.000407
  0
ARC
  5
896
100
AcDbEntity
  8
シンボル
  6
CONTINUOUS
 62
    50
100
AcDbCircle
 10
139.500634
 20
150.249217
 30
0.0
 40
0.5
100
AcDbArc
 50
180.000407
 51
270.000407
  0
ARC
  5
897
100
AcDbEntity
  8
シンボル
  6
CONTINUOUS
 62
    50
100
AcDbCircle
 10
139.500634
 20
150.249217
 30
0.0
 40
0.5
100
AcDbArc
 50
270.000407
 51
0.000407
  0
ARC
  5
898
100
AcDbEntity
  8
シンボル
  6
CONTINUOUS
 62
    50
100
AcDbCircle
 10
141.500634
 20
150.249231
 30
0.0
 40
0.5
100
AcDbArc
 50
180.000407
 51
270.000407
  0
ARC
  5
899
100
AcDbEntity
  8
シンボル
  6
CONTINUOUS
 62
    50
100
AcDbCircle
 10
141.500634
 20
150.249231
 30
0.0
 40
0.5
100
AcDbArc
 50
270.000407
 51
0.000407
  0
ARC
  5
89A
100
AcDbEntity
  8
シンボル
  6
CONTINUOUS
 62
    50
100
AcDbCircle
 10
143.500634
 20
150.249245
 30
0.0
 40
0.5
100
AcDbArc
 50
180.000407
 51
270.000407
  0
ARC
  5
89B
100
AcDbEntity
  8
シンボル
  6
CONTINUOUS
 62
    50
100
AcDbCircle
 10
143.500634
 20
150.249245
 30
0.0
 40
0.5
100
AcDbArc
 50
270.000407
 51
0.000407
  0
ARC
  5
89C
100
AcDbEntity
  8
シンボル
  6
CONTINUOUS
 62
    50
100
AcDbCircle
 10
145.500634
 20
150.249259
 30
0.0
 40
0.5
100
AcDbArc
 50
180.000407
 51
270.000407
  0
ARC
  5
89D
100
AcDbEntity
  8
シンボル
  6
CONTINUOUS
 62
    50
100
AcDbCircle
 10
145.500634
 20
150.249259
 30
0.0
 40
0.5
100
AcDbArc
 50
270.000407
 51
0.000407
  0
ARC
  5
89E
100
AcDbEntity
  8
シンボル
  6
CONTINUOUS
 62
    50
100
AcDbCircle
 10
147.500634
 20
150.249273
 30
0.0
 40
0.5
100
AcDbArc
 50
180.000407
 51
270.000407
  0
ARC
  5
89F
100
AcDbEntity
  8
シンボル
  6
CONTINUOUS
 62
    50
100
AcDbCircle
 10
147.500634
 20
150.249273
 30
0.0
 40
0.5
100
AcDbArc
 50
270.000407
 51
0.000407
  0
ARC
  5
8A0
100
AcDbEntity
  8
シンボル
  6
CONTINUOUS
 62
    50
100
AcDbCircle
 10
149.500634
 20
150.249288
 30
0.0
 40
0.5
100
AcDbArc
 50
180.000407
 51
270.000407
  0
ARC
  5
8A1
100
AcDbEntity
  8
シンボル
  6
CONTINUOUS
 62
    50
100
AcDbCircle
 10
149.500634
 20
150.249288
 30
0.0
 40
0.5
100
AcDbArc
 50
270.000407
 51
0.000407
  0
ARC
  5
8A2
100
AcDbEntity
  8
シンボル
  6
CONTINUOUS
 62
    50
100
AcDbCircle
 10
151.500634
 20
150.249302
 30
0.0
 40
0.5
100
AcDbArc
 50
180.000407
 51
270.000407
  0
ARC
  5
8A3
100
AcDbEntity
  8
シンボル
  6
CONTINUOUS
 62
    50
100
AcDbCircle
 10
151.500634
 20
150.249302
 30
0.0
 40
0.5
100
AcDbArc
 50
270.000407
 51
0.000407
  0
ARC
  5
8A4
100
AcDbEntity
  8
シンボル
  6
CONTINUOUS
 62
    50
100
AcDbCircle
 10
153.500634
 20
150.249316
 30
0.0
 40
0.5
100
AcDbArc
 50
270.000407
 51
0.000407
  0
ARC
  5
8A5
100
AcDbEntity
  8
シンボル
  6
CONTINUOUS
 62
    50
100
AcDbCircle
 10
153.500634
 20
150.249316
 30
0.0
 40
0.5
100
AcDbArc
 50
180.000407
 51
270.000407
  0
ARC
  5
8A6
100
AcDbEntity
  8
シンボル
  6
CONTINUOUS
 62
    50
100
AcDbCircle
 10
155.500634
 20
150.24933
 30
0.0
 40
0.5
100
AcDbArc
 50
270.000407
 51
0.000407
  0
ARC
  5
8A7
100
AcDbEntity
  8
シンボル
  6
CONTINUOUS
 62
    50
100
AcDbCircle
 10
155.500634
 20
150.24933
 30
0.0
 40
0.5
100
AcDbArc
 50
180.000407
 51
270.000407
  0
ARC
  5
8A8
100
AcDbEntity
  8
シンボル
  6
CONTINUOUS
 62
    50
100
AcDbCircle
 10
157.500634
 20
150.249344
 30
0.0
 40
0.5
100
AcDbArc
 50
270.000407
 51
0.000407
  0
ARC
  5
8A9
100
AcDbEntity
  8
シンボル
  6
CONTINUOUS
 62
    50
100
AcDbCircle
 10
157.500634
 20
150.249344
 30
0.0
 40
0.5
100
AcDbArc
 50
180.000407
 51
270.000407
  0
ARC
  5
8AA
100
AcDbEntity
  8
シンボル
  6
CONTINUOUS
 62
    50
100
AcDbCircle
 10
159.500634
 20
150.249359
 30
0.0
 40
0.5
100
AcDbArc
 50
270.000407
 51
0.000407
  0
ARC
  5
8AB
100
AcDbEntity
  8
シンボル
  6
CONTINUOUS
 62
    50
100
AcDbCircle
 10
159.500634
 20
150.249359
 30
0.0
 40
0.5
100
AcDbArc
 50
180.000407
 51
270.000407
  0
ARC
  5
8AC
100
AcDbEntity
  8
シンボル
  6
CONTINUOUS
 62
    50
100
AcDbCircle
 10
161.500634
 20
150.249373
 30
0.0
 40
0.5
100
AcDbArc
 50
270.000407
 51
0.000407
  0
ARC
  5
8AD
100
AcDbEntity
  8
シンボル
  6
CONTINUOUS
 62
    50
100
AcDbCircle
 10
161.500634
 20
150.249373
 30
0.0
 40
0.5
100
AcDbArc
 50
180.000407
 51
270.000407
  0
ARC
  5
8AE
100
AcDbEntity
  8
シンボル
  6
CONTINUOUS
 62
    50
100
AcDbCircle
 10
73.500634
 20
150.248748
 30
0.0
 40
0.5
100
AcDbArc
 50
270.000407
 51
0.000407
  0
ARC
  5
8AF
100
AcDbEntity
  8
シンボル
  6
CONTINUOUS
 62
    50
100
AcDbCircle
 10
73.500588
 20
156.748748
 30
0.0
 40
0.5
100
AcDbArc
 50
0.000407
 51
90.000407
  0
LINE
  5
8B0
100
AcDbEntity
  8
シンボル
  6
CONTINUOUS
 62
   191
100
AcDbLine
 10
234.45
 20
-27.25
 30
0.0
 11
234.45
 21
-23.25
 31
0.0
  0
LINE
  5
8B1
100
AcDbEntity
  8
シンボル
  6
CONTINUOUS
 62
   191
100
AcDbLine
 10
234.45
 20
-34.0
 30
0.0
 11
234.45
 21
-30.25
 31
0.0
  0
LINE
  5
8B2
100
AcDbEntity
  8
シンボル
  6
CONTINUOUS
 62
   191
100
AcDbLine
 10
234.45
 20
-41.0
 30
0.0
 11
234.45
 21
-37.5
 31
0.0
  0
LINE
  5
8B3
100
AcDbEntity
  8
シンボル
  6
CONTINUOUS
 62
   191
100
AcDbLine
 10
234.45
 20
-68.45
 30
0.0
 11
234.45
 21
-44.5
 31
0.0
  0
ENDSEC
  0
SECTION
  2
OBJECTS
  0
DICTIONARY
  5
19
100
AcDbDictionary
  3
ACAD_GROUP
350
1A
  3
ACAD_MLINESTYLE
350
1B
  0
DICTIONARY
  5
1A
102
{ACAD_REACTORS
330
19
102
}
100
AcDbDictionary
  0
DICTIONARY
  5
1B
102
{ACAD_REACTORS
330
19
102
}
100
AcDbDictionary
  3
STANDARD
350
1C
  0
MLINESTYLE
  5
1C
102
{ACAD_REACTORS
330
1B
102
}
100
AcDbMlineStyle
  2
Standard
 70
     0
  3

 62
     0
 51
90.0
 52
90.0
 71
     2
 49
0.5
 62
   256
  6
ByLayer
 49
-0.5
 62
   256
  6
ByLayer
  0
ENDSEC
  0
EOF
